Guitar Tabs, Chords and Lyrics


Taint Your World   Toto



intro
/--------------------------------------------------------|
/--------------------------------------------------------|
/------------------5-------------------------------------|
/-----0-5—0-7--0-4-5----0-4-5-7--------------------------|
/--------—-----------0-3--------0------------------------|
/--------------------------------------------------------|

/--------------------------------------------------------|
/--------------------------------------------------------|
/------------------5-------------------------------------|
/-----0-5-0-7--0-4-5-------------------------------------|
/--------------------0-2-3-2h3p2---0---------------------|
/--------------------------------3-----------------------|


Important: The song above is NOT stored on the Chordie server. The original song is hosted at www.guitaretab.com. Chordie works as a search engine and provides on-the-fly formatting. Chordie does not index songs against artists'/composers' will. To remove this song please click here.

This song is displayed as text-only. Transposing and tuning is only available for chordpro-songs.

Login - add to songbook

Rating click stars to rate

Layout
Accuracy

SHARE PAGE  




You need to log in to post comments