Chordie logo


Dead Flowers  Townes Van Zandt

----------------------------------------------------



 ----------------------------------------------------

-/-/-/-/-/-/-/-/-/-/-/-Picking Patterns-/-/-/-/-/-/-/-/-/-/-/-
e-|-----------|------------|-------------------|
b-|---0----0--|--1----1----|--1----1--1----1---|
g-|------0---0|-----2---2--|-----0---0---0---0-|
d-|-----0---0-|----3---3---|----2---2---2---2--|
a-|-----------|------------|--3-------3--------|
e-|---3---3---|--1---1-----|------3-------3----|
e-|----3--3p0---|------0-----|-------------|-----------|
b-|-----------3-|-------3-0--|--1------1---|--1----1---|
g-|------0------|----0-------|-----0h2---2-|-----0---0-|
d-|-----2----2--|---0----0---|----3-----3--|----2---2--|
a-|---3---------|------------|-------------|--3--------|
e-|-------3-----|-3----3-----|--1----1-----|------3----|
-------------------------------------------------------------------
| e-|--3----3---|--3----3---| |--0---0---|--0---0---| |
| b-|--0----0---|--0----0---| |--1---1---|--1---1---| |
| g-|-----0---0-|-----0---0-| |----1---1-|----1---1-| |
| d-|----0---0--|----0---0--| |---2---2--|---2---2--| |
| a-|-----------|-----------| |--3-------|--3-------| |
| e-|--3---3----|--3---3----| |-----3----|-----3----| 2X |
| e-|--1----1---|--1----1---| |--0---0---|--0---0---| |
| b-|--1----1---|--1----1---| |--1---1---|--1---1---| |
| g-|-----2---2-|-----2---2-| |----1---1-|----1---1-| |
| d-|----3---3--|----3---3--| |---2---2--|---2---2--| |
| a-|-----------|-----------| |--3-------|--3-------| |
| e-|--1---1----|--1---1----| |-----3----|-----3----| 2X |
| e-|----3--3p0---|------0-----|-------------|-----------| |
| b-|-----------3-|-------3-0--|--1------1---|--1----1---| |
| g-|------0------|----0-------|-----0h2---2-|-----0---0-| |
| d-|-----2----2--|---0----0---|----3-----3--|----2---2--| |
| a-|---3---------|------------|-------------|--3--------| |
| e-|-------3-----|-3----3-----|--1----1-----|------3----| 1X |
-------------------------------------------------------------------
-/-/-/-/-/-/-/-/-/-/-/-/-/-/-/-/-/-/-/-/-/-/-/-/-/-/-/-/-/-/-/-/-/-
Well [C]when you're sitting [G]there in your [F]silk upholstered [C]chair
Talkin' to some rich folk that you know
Well I hope you won't see me in my ragged company
Well, you know I could never be alone

Chorus:
Take me [G]down little Susie, take me do[C]wn
[G]I know you think you're the queen of the [C]underground
And you can [F]send me dead flowers every [C]morning
[F]Send me dead flowers by the [C]mail
[F]Send me dead flowers to my w[C]edding
And I [C]won't forget to put [G]roses on your [F]grave [C]

Verse 2:
Well when you're sitting back in your rose pink Cadillac
Making bets on Kentucky Derby Day
Ah, I'll be in my basement room with a needle and a spoon
And another girl to take my pain away

Chorus:
Take me down little Susie, take me down
I know you think you're the queen of the underground
And you can send me dead flowers every morning
Send me dead flowers by the mail
Send me dead flowers to my wedding
And I won't forget to put roses on your grave

Final Chorus:
Take me down little Susie, take me down
I know you think you're the queen of the underground
And you can send me dead flowers every morning
Send me dead flowers by the U.S. Mail
Say it with dead flowers in my wedding
And I won't forget to put roses on your grave
No, I won't forget to put roses on your grave

-/-/-/-/-/-/-/-/-/-/-/-/-/-/-/-/-/-/-/-/-/-/-/-/-/-/-/-/-/-/-/-/-/-


Tabbed by craigfr(a)vt.edu

Important: The song above is NOT stored on the Chordie server. The original song is hosted at www.guitaretab.com. Chordie works as a search engine and provides on-the-fly formatting. Chordie does not index songs against artists/composers will. To remove this song please click here.

Text color:
Chord color:
Chord grids: 
Font size:    
Page size: 

C F G
variations - click chord images

Login - add to songbook

Transpose chords

Tuning

Rating click stars to rate

Layout
Accuracy

SHARE PAGE  




You need to log in to post comments