Keeper Of The Stars

Tracy Byrd

 D
e|----------0h2-----0------2p0---------------|---------2-------
B|------3-------3-----3--------3---------3---|-----3-----3-----
G|----2---2-------2--------------2-----0---0-|---2---2-----2---
D|--0--------------------0-----------0-------|-0-------------0-
A|---------------------------------0---------|-----------------
E|-------------------------------------------|-----------------


 A/C#BmG
e|-------------------------------------------------------------
B|----------2-----------------3--------------------------------
G|------2-----2---------4-4-----4------------0---------0-------
D|----2---2-----2-----4-----4-----4--------0---0---2h4---2-0---
A|--4-------------4-2----------------2-0-----------------------
E|---------------------------------------3---------------------


 GD/F#Em
e|----------------------------0---------------0----------------
B|----------3-----------3-------3---------0-----0--------------
G|------0-----0---0---2---2-------2-----0---0-----0------------
D|----0---0-----0---4-------4-------4-2-------------2----------
A|-------------------------------------------------------------
E|--3----------------------------------------------------------


 A7susDA/C#
e|----------------------------0-----0--------------------------
B|------3-----2h3-5-2-----3-----3--------------2---------------
G|------0---------------2---2-----2--------2-----2-------------
D|----2---2---2-------0------------------2---2-----2-----------
A|--0-------0--------------------------4-------------4---------
E|-------------------------------------------------------------


 BmG
e|-------------------------------------------------3-----------
B|------------3-----------------3--------------0-----0---------
G|------4-4-----4-----------0-----0------0-------0-----0-------
D|----4-----4-----4-------0---0-----0h2------0-----------0-----
A|--2---------------2-0----------------------------------------
E|----------------------3------------------3-------------------


 D/F#EmA7susA
e|------------0-----------------0--------------------0----0----
B|------3-------3-----------0-----0--------------3-----3--2----
G|----2---2-------2---2---0---0-----0--------0-----0------2----
D|--4-------4-------4---2-------------2----2---2----------2----
A|---------------------------------------0----------------0----
E|-------------------------------------------------------------


Verse 1:
 DA/C#BmG
 It was no accident,  me finding you
 GD/F#EmA7sus
 Someone had a hand in it,  long before we ever knew
 DA/C#BmG
 Now I just can't believe,   you're in my life
 GD/F#EmA7susA
 Heaven smiling down on me,  as I look at you tonight  

Chorus:
 DGAF#m
I tip my hat to the keeper of the stars
 GD/F#Em
 He sure knew what he was doin'
 AD
 when he joined these two hearts
 D/ED/F#GAF#m
 I hold ev___rything when I hold you in my arms
 GD/F#Em
 I've got all I'll ever need
Thanks to the keeper of the stars

e|----------3-------------2p0-----------------
B|--------0-------------------3----------3----
G|------2-----4p2p0-0-----------2------0---0--
D|----0---------------0--------------0--------
A|---------------------------------0----------
E|--3-----------------------------------------


Verse 2:
Soft moonlight on your face, oh how you shine
It takes my breath away, just to look into your eyes
I know I don't deserve, a treasure like you
there really are no words, to show my gratitude

Chorus:
So I tip my hat to the keeper of the stars
He sure knew what he was doin'
When he joined these two hearts
I hold everything when I hold you in my arms
I've got all i'll ever need
Thanks to the keeper of the stars

Iit was no accident
Me finding you
Someone had a hand in it
Long before we ever knew...

e|--------0--------------2p0-----------------0h2--
B|------0---------3~~--------3----------3----3----
G|----0---------0--------------2------0---0--2----
D|--2---------2--------0------------0--------0----
A|----------0---------------------0---------------
E|------------------------------------------------
-------------------

Enjoy!!
ShawneeNDN@aol.com


A A/C# A7sus Bm D D/E D/F# Em F#m G
variations - click chord images
Transpose chords:
Tuning:
Cool service:
View: Size:
A  A  A
Rating:
Layout:
  • Currently 2.8/5 Stars.
  • 1
  • 2
  • 3
  • 4
  • 5
 
Accuracy:
  • Currently 3/5 Stars.
  • 1
  • 2
  • 3
  • 4
  • 5
 
click stars to rate
Chordie recommends:
Get acoustic guitar lessons and electric guitar lessons at JamPlay.com
Songbook:
Login to add this song to your songbook
Support the artist
Preview/buy this song
MSN Music
Why this non-profit ad?

 
login to add comments/video/corrections