Guitar Tabs, Chords and Lyrics


Navy Bean  Tracy Bonham



------------------------------------

Tuning: Standard [EADGBe]
Tabbed : by I God


Intro Riff          /----------x8---------------\--|
E|-----------------|-------------------------------|
B|-----------------|-------------------------------|
G|-----------------|*------------------------------|
D|-----------------|*------------------------------|
A|------1-----1----|-------------1-----1-----------|
E|-1-1-----3-----3-|-1--2--3--3-----3-----3--------|


|G5 A#5 G5 F5| x4

Bass during verse
G|-----------------------------------|
D|-----------------------------------|
A|-----------------------------------|
E|--3-3-3-3-6-6-6-6-3-3-3-3-1-1-1-1--|



Verse 1
A navy bean is bigger than it seems
put it on and don't ask what it means


Chorus 1
[G#5]        Par[A#5]ade around

(Riff
[1]                                                                                       
E--------------------------------------|
B--------------------------------------|
G--------------------------------------|
D--------------------------------------|
A--------------------------------------|
E---3--3--3/6--6--6\3--3--3\1--1--1----|



Verse 2
Cellophane is thicker than it seems
put it on and don't ask what it means

Chorus 2

[G#5]        Par[A#5]ade around
[Riff 1] 
[G#5]        Par[A#5]ade around
[F#5]        Par[G#5]ade Around
[Riff 1 x2] 
Around

Verse 3
Shaving cream is thicker than it seems
shave 'em off and don't ask what it means

[Cborus 1] 

Verse 4
an angel wing is caught up in the tree
if you know what's best
get the hell away from me

[cborus] 

Bridge x2
for each chord notation play
the first three strings in ascending order

i.e. for G5 play

D|-------5-|
A|----5----| (let ring)
E|-3-------|


[B5]Oh you little navy bean    [B5]
Oh you're caught up in the tree [G5]
(navy be[G5]an)

Solo
(only the first part. i can't figure out the rest)


E----------------------------------------------|
B----------------------------------------------|
G---7--7--7--9--9b10r9--9b10r9--7--7--7--9--5--|
D----------------------------------------------|
A----------------------------------------------|
E----------------------------------------------|
E-------------------------------------------------|
B-------------------------------------------------|
G---7--7--7--9--9b10r9--9b10r9--7--7--7--9--7--5--|
D-------------------------------------------------|
A-------------------------------------------------|
E-------------------------------------------------|
E|-----------------------------------|
B|-----------------------------------|
G|---10/12--12--12--10--12--14b16-12-|
D|-----------------------------------|
A|-----------------------------------|
E|-----------------------------------|



[Verse 2] 
[Cborus] 
Outtro same as intro but shorter


Send questions/corrections to:
_______ ____
/ \__/ _/
/ / I God _____
|     / | |    \---------------------------|     \
|    /  | |   _/--------------------\------|____/

\ _ \_
\_______/ \___\

Please don't send "you suck" messages.
I don't need that!!!

Important: The song above is NOT stored on the Chordie server. The original song is hosted at www.guitaretab.com. Chordie works as a search engine and provides on-the-fly formatting. Chordie does not index songs against artists'/composers' will. To remove this song please click here.

Text color:
Chord color:
Chord grids: 
Font size:    
Page size: 

A#5 B5 F#5 G#5 G5
variations - click chord images

Login - add to songbook

Transpose chords

Tuning

Rating click stars to rate

Layout
Accuracy

SHARE PAGE  




You need to log in to post comments