Chordie logo


The Pipe On The Hob   Traditional Irish



       The Pipe On The Hob
      Tabbed by Djordje Putnik
				
          www.midiguitar.de                             


Pipe on the Hob, 6/8 or 3/4 rhythm, accentuate the 1. and 4. eigth

1. and 2. is for alternative endings of a melody.


     H        E  E       E  E  E  Q    E     Q    E  E  E  E   
E||-----------------||--------------------|-------------------|
B||-----------------||---3--2--3----------|-------------------|
G||--------------2--||*-----------2----0--|-------------------|
D||-----------------||*-------------------|--4----0--0--2--0--|
A||-----------------||--------------------|-------------------|
E||-----------------||--------------------|-------------------|


  E  E  E  E  E  E     Q    E  Q    E     E  E  E  E  E  E   
--------------------|------------------|--------------------|
-----------1--0--1--|------------------|--3--1--0--1--0-----|
--------------------|---------------2--|-----------------2--|
--2--0--2-----------|--2----0--0-------|--------------------|
--------------------|------------------|--------------------|
--------------------|------------------|--------------------|


  E  E  E  Q    E     E  E  E  E  E  E   1.Q    E  Q    E     
-------------------|--------------------|-------------------||
--0----------------|-----------1--0--1--|-------------------||
-----2--0--2----0--|--------------------|---------------2--*||
-------------------|--2--0--2-----------|--2----0--0-------*||
-------------------|--------------------|-------------------||
-------------------|--------------------|-------------------||


2.Q    E  Q    E       Q    E  E  E  E     Q    E  E  E  E   
---------------0--||---2----------------|--2----------------|
------------------||--------3--3--2--3--|-------3--3--2--3--|
------------------||*-------------------|-------------------|
--2----0--0-------||*-------------------|-------------------|
------------------||--------------------|-------------------|
------------------||--------------------|-------------------|


  E  E  E  Q    E     E  E  E  E  E  E     Q    E  E  E  E   
--0----------------|--0--------5--3--0--|--2----------------|
-----3--0--1----3--|-----3--5-----------|-------3--3--2--3--|
-------------------|--------------------|-------------------|
-------------------|--------------------|-------------------|
-------------------|--------------------|-------------------|
-------------------|--------------------|-------------------|


  Q    E  E  E  E     E  E  E  E  E  E   1.E  E  E  Q    E     
--2----------------|--0--------5--3--0--|--0-------------0---||
-------3--3--2--3--|-----3--5-----------|-----3--2--3--------||
-------------------|--------------------|-------------------*||
-------------------|--------------------|-------------------*||
-------------------|--------------------|--------------------||
-------------------|--------------------|--------------------||


2.E  E  E  Q    E    
--0----------------||
-----3--2--3-------||
-------------------||
-------------------||
-------------------||
-------------------||




Duration Legend
---------------
W - whole
H - half
Q - quarter


Important: The song above is NOT stored on the Chordie server. The original song is hosted at www.guitaretab.com. Chordie works as a search engine and provides on-the-fly formatting. Chordie does not index songs against artists/composers will. To remove this song please click here.

This song is displayed as text-only. Transposing and tuning is only available for chordpro-songs.

Login - add to songbook

Rating click stars to rate

Layout
Accuracy

SHARE PAGE  




You need to log in to post comments