Chordie logo


So Hard Done By   Tragically Hip







Date: Tue, 20 Jun 1995 18:51:39 +0059 (EDT)



So Hard Done By - The Hip
=========================
From the album : Day for Night - 1994

Drop D

Verses & Chorus are similar
All Bar chords

Use distortion and play through the neck pickup.

-----------------------------------------------------------------------------|
-----------------------------------------------------------------------------|
-----------------------------------------------------------------------------|
----0-----3-----5-----0--0--0--3-----5-----0-----3-----5-----0--0--0--3----5-|
----0-----3-----5-----0--0--0--3-----5-----0-----3-----5-----0--0--0--3----5-|
----0-----3-----5-----0--0--0--3-----5-----0-----3-----5-----0--0--0--3----5-|


-----------------------------------------------------------------------------|
-----------------------------------------------------------------------------|
-----------------------------------------------------------------------------|
----10-----10-----10-----5------5------5------0----3----5---0--0--0--3-----5-|
----10-----10-----10-----5------5------5------0----3----5---0--0--0--3-----5-|
----10-----10-----10-----5------5------5------0----3----5---0--0--0--3-----5-|


P.S. Keep all the Hip coming!

Gord Murdoch


Important: The song above is NOT stored on the Chordie server. The original song is hosted at www.guitaretab.com. Chordie works as a search engine and provides on-the-fly formatting. Chordie does not index songs against artists/composers will. To remove this song please click here.

This song is displayed as text-only. Transposing and tuning is only available for chordpro-songs.

Login - add to songbook

Rating click stars to rate

Layout
Accuracy

SHARE PAGE  




You need to log in to post comments