Guitar Tabs, Chords and Lyrics


Vaccination Scar   Tragically Hip



Vaccination Scar

My first tab. Based on the only other tab on the internet for this song. 


Intro

e|-55-77--5-5--77----------------------------------------------------!
B|-55-77--5-5--77----------------------------------------------------!
G|-------------------------------------------------------------------!
D|-------------------------------------------------------------------!
A|-------------------------------------------------------------------!
E|-------------------------------------------------------------------!
X2

Intro Part 2

e|-------7-----5---5----------7---5h7--------------------------------!
B|-----0-----7---7---7------0---7-----5------------------------------!
G|-3/7------------------3/7------------------------------------------!
D|-------------------------------------------------------------------!
A|-------------------------------------------------------------------!
E|-------------------------------------------------------------------!

*The 3/7 slide must be FAST.

Chords
   * * * ^ *    * * * ^ *
e|-3-3-3-3------0-0-0-0-0---2-2-2-2-2-2------------------------------!
B|-0-0-0-0------0-0-0-0-0---3-3-3-3-3-3------------------------------!
G|-0-0-0-0------2-2-2-2-2---4-4-4-4-4-4-x2---------------------------!
D|-0-0-0-0------2-2-2-2-2---4-4-4-4-4-4------------------------------!
A|-2-2-2-2------0-0-0-0-0---2-0-2-0-2-0------------------------------!
E|-3-3-3-3-3----0-0-0-0-0--------------------------------------------!

*=downstroke
^=upstrike
Note:play the last chord strumming pattern twice. 
Note:Play these chords until you segue into the riff
Note:LOOSE strumming pattern. Changes slightly- just listen to the song

Main riff is the same as Intro part two. Some slight variations.

First solo

Starts with main riff

e|-------7--------9-------9--9-9/10-7--10-12-------------------------!
B|-----0-------0--------0--------------------------------------------!
G|-3/7-----3/7------3/7----------------------------------------------!
D|-------------------------------------------------------------------!
A|-------------------------------------------------------------------!
E|-------------------------------------------------------------------!


e|14-14-14-14-14-12-10-14-14-14-14-14-12-10--14-14-14-14-14-10-12-10-!
B|-------------------------------------------------------------------!
G|-------------------------------------------------------------------!
D|-------------------------------------------------------------------!
A|-------------------------------------------------------------------!
E|-------------------------------------------------------------------!

e|-14-10-14--18~~~---------------------------------------------------!
B|-------------------------------------------------------------------!
G|-------------------------------------------------------------------!
D|-------------------------------------------------------------------!
A|-------------------------------------------------------------------!
E|-------------------------------------------------------------------!




Important: The song above is NOT stored on the Chordie server. The original song is hosted at www.guitaretab.com. Chordie works as a search engine and provides on-the-fly formatting. Chordie does not index songs against artists/composers will. To remove this song please click here.

This song is displayed as text-only. Transposing and tuning is only available for chordpro-songs.

Login - add to songbook

Rating click stars to rate

Layout
Accuracy

SHARE PAGE  




You need to log in to post comments