Chordie logo

Queens In The Winter Night   Trans-Siberian Orchestra



Queen of the Winter Night, song 8 on The Lost Christmas Eve
(Standard Tune)
(.07)
E-----------------------------------|
B-----------------------------------|
G---5-4-2---------------5-----5---5-|
D-5-5-----5-3-2-------5-5-5-5-5-5-5-|
A-3-3-----------5-3---3-3-5-3-3-5-3-|
E-------------------------3----3----|
  *   ***************       *
(.21)
E-----------------------------------|
B-----------------------------------|
G---5-4-2---------------5-----5---5-|
D-5-5-----5-3-2-------5-5-5-5-5-5-5-|
A-3-3-----------5-3---3-3-5-3-3-5-3-|
E-------------------------3----3----|
  *   ***************       *
(.30)
E-------8------------------8-----------|
B---5-8---8-10----8----5-8---8-10----8-|
G-5------------10----5------------10---|
D--------------------------------------|
A--------------------------------------|
E--------------------------------------|

E-------8---8-6-----6-------------------------------------|
B---5-8---8-----9-6---9-8---9-8-6---8-6-----6-------------|
G-5-----------------------8-------7-----8-5---8-7---8-7-5-|
D-------------------------------------------------8-------|
A---------------------------------------------------------|
E---------------------------------------------------------|

E-------------------|
B---6---------6-----|
G-7---4-4-5-7---4-4-|
D-------------------|
A-------------------|
E-------------------|
(.50)
E---------------------------------------|
B---------------------------------------|
G-------------------------------------5-|
D-----------------------------5-5-5-5-5-|
A-----------------------------5-5-5-5-3-|
E-10-12-10-8-10-8-7-8-7-5-7-5-3-3-3-3---|
  ***************************
(1.02)
E-----------------------------------|
B-----------------------------------|
G---5-4-2---------------5-----5---5-|
D-5-5-----5-3-2-------5-5-5-5-5-5-5-|
A-3-3-----------5-3---3-3-5-3-3-5-3-|
E-------------------------3----3----|
  *   ***************       *


E---------|
B---------|
G---------|
D-5-5-5-5-|
A-3-3-3-3-|
E---------|
  *******
Plays over above riff, repeats a lot
(1.24)
E----------8------------------8-----------|
B------5-8---8-10----8----5-8---8-10----8-|
G-5—5-------------10----5------------10---|
D-5---------------------------------------|
A-3---------------------------------------|
E-----------------------------------------|

E-------8---8-6-----6-------------------------------------|
B---5-8---8-----9-6---9-8---9-8-6---8-6-----6-------------|
G-5-----------------------8-------7-----8-5---8-7---8-7-5-|
D-------------------------------------------------8-------|
A---------------------------------------------------------|
E---------------------------------------------------------|

E---------------------------|
B-------6-------------6-----|
G-5-5-7---4-4-5-5-5-7---4-4-|
D---------------------------|
A---------------------------|
E---------------------------|
(1.46)
E-----------------------------------------------------------------|
B-----------------------------------------------------------------|
G-----------------------------------------------------------------|
D---------------------------------------------------------5-5-5-5-|
A---------------------------------------------------------5-5-5-5-|
E-10-12-10-8-10-8-7-8-7-5-7-5-12-10-12-8-10-8-7-8-7-5-7-5-3-3-3-3-|
  *******************************************************
(1.55)
E---------------~------8-----------|
B---------------~--5-8---8-10----8-|
G-5-------------~5------------10---|
D-5-|5-5-5-5|----------------------|
A-3-|3-3-3-3|----------------------|
E----------------------------------|
     *******
|repeats throughout| ~ plays over riff in front of it, and repeats a few times
(2.37)

E-15p12-------15p12-----------|
B-------15p13-------15p13-----|
G-----------------------------|
D------------------------(x16-|
A-----------------------------|
E-----------------------------|

(2.53)
E-----------------------------------------------------------------|
B-----------------------------------------------------------------|
G-----------------------------------------------------------------|
D---------------------------------------------------------5-5-5-5-|
A---------------------------------------------------------5-5-5-5-|
E-10-12-10-8-10-8-7-8-7-5-7-5-12-10-12-8-10-8-7-8-7-5-7-5-3-3-3-3-|
  *******************************************************

E----
B----
G-5-5
D-5-5
A-3-3
E----

-End

Key
P= pull off
*= Palm Mute

This is an awesome song, have fun with it
Rock on TSO fans

**Upcoming Tabs**
3. Christmas Dreams
4. Wizards In Winter
9. Christmas Nights in Blue



Important: The song above is NOT stored on the Chordie server. The original song is hosted at www.guitaretab.com. Chordie works as a search engine and provides on-the-fly formatting. Chordie does not index songs against artists/composers will. To remove this song please click here.

This song is displayed as text-only. Transposing and tuning is only available for chordpro-songs.

Login - add to songbook

Rating click stars to rate

Layout
Accuracy

SHARE PAGE  

You need to log in to post comments