Black Apples

Trash Light Vision

----------------------------------------------------------------------------

----------------------------------------------------------------------------

 Eb5B5F#5A#5
eb|------------------------------------------------------------------------|
Bb|--5-5-5--5-5-5----------------------------------------------------------|
Gb|--4-4-4--4-4-4--5-5-5--5-5-5----------------4-4-4--4-4-4----------------|
Db|--2-2-2--2-2-2--5-5-5--5-5-5--5-5-5--5-5-5--4-4-4--4-4-4----------------|
Ab|----------------3-3-3--3-3-3--5-5-5--5-5-5--2-2-2--2-2-2----------------|
Eb|------------------------------3-3-3--3-3-3------------------------------|


INTRO SOLO

w/wah

eb|-------------------------------------------17-15-17---------------------|
Bb|-------------------------------------15-17----------17-15-17------------|
Gb|-15-14-12----------------------12-14------------------------------------|
Db|----------14-12-14----14-12-14------------------------------------------|
Ab|------------------------------------------------------------------------|
Eb|------------------------------------------------------------------------|


VERSE THEME

Ad Lib

w/whammy bar

 EbmBmF#A#
eb|------------------------------------------------------------------------|
Bb|--------8----------------------------12---------------------------------|
Gb|------9----9----------9-----------12----12--------8---------------------|
Db|----9--------------10---10-----12---------------9----9------------------|
Ab|--7-------------10----------10----------------9-------------------------|
Eb|--0-----------8-----------------------------7---------------------------|


CHORUS THEME

whammy bar off

 Eb5B5F#5A#
eb|------------------------------------------------------------------------|
Bb|------------------------------------------------------------------------|
Gb|-----------5-5-5-5-----------4-4-4-4------------------------------------|
Db|--2-2-2-2--5-5-5-5--5-5-5-5--4-4-4-4------------------------------------|
Ab|--2-2-2-2--3-3-3-3--5-5-5-5--2-2-2-2------------------------------------|
Eb|--0-0-0-0-----------3-3-3-3---------------------------------------------|


============================================================================









A# A#5 B5 Bm Eb5 Ebm F# F#5
variations - click chord images
Transpose chords:
Tuning:
Cool service:
View: Size:
A  A  A
Rating:
Layout:
  • Currently 2.9/5 Stars.
  • 1
  • 2
  • 3
  • 4
  • 5
 
Accuracy:
  • Currently 3.5/5 Stars.
  • 1
  • 2
  • 3
  • 4
  • 5
 
click stars to rate
Chordie recommends:
Learn to play guitar with video-based, online guitar lessons at JamPlay.com
Songbook:
Login to add this song to your songbook
Support the artist
Preview/buy this song
MSN Music
Why this non-profit ad?

 
login to add comments/video/corrections