Guitar Tabs, Chords and Lyrics


Funny Thing  Travis

------------------------------------------------------------------------



------------------------------------------------------------------------

A funny thing to [D]do,
Is everyone like [G]you,
'Cause people [G/F#]seldom [Em]change,
All just stay the [A7]same.
A funny thing to [D]say,
Suppose you're just that [G]way,
Although you're [G/F#]sure you're [Em]sure,
There really is no [A7]cure.
CHORUS
A funny kind of [Dadd9]way,
A funny kind of [D7add9]day,
You're funny all the [G]time,
Do you want a [G/F#]piece of [Em]mine.
'Cause I've seen it [D]all before,
When you're closing all[A] the doors,
It's not funny any[D] more.[G] [D]
VERSE2
[A]A funny thing to [D]do,
Because the sky was [G]blue,
You ran [G/F#]away for [Em]good,
'Cause no one under[A7]stood.
The funny things you [D]said,
Because the sky was [G]red,
It all went [G/F#]to your [Em]head,
Because the sky was [A7]red.
CHORUS - Repeat
CHORUS - Repeat
VERSE3
A funny thing to [D]do,
Is everyone like [G]you,
'Cause people [G/F#]seldom [Em]change,
They all just stay the [A7]same.[D]
CHORDS D XX0232
G 320033
G/F# 2X0033
Em 022000
A7 X02223
Dadd9 XX0230
D7add9 XX0210
A X02220
MAIN SOLO (performed on a very distorted electric guitar)
E--2--2-----------------3--------------------------------------------
B--3--3-----------------3---------------------------2--/14--14--14---
G--2--2--0--2--0--------0------------0--2--0--------2--/14--14--14---
D--0--0-----------4--0--0---------2-----------4--0--2--/14--14--14---
A-----------------------2---------2----------------------------------
E-----------------------3--3--2^--0----------------------------------

This pattern is repeated several times throughout the song, Then the
guitar does some tricks with feedback which is impossible to tabulate.

Important: The song above is NOT stored on the Chordie server. The original song is hosted at www.guitaretab.com. Chordie works as a search engine and provides on-the-fly formatting. Chordie does not index songs against artists'/composers' will. To remove this song please click here.

Text color:
Chord color:
Chord grids: 
Font size:    
Page size: 

A A7 D D7add9 Dadd9 Em G G/F#
variations - click chord images

Login - add to songbook

Transpose chords

Tuning

Rating click stars to rate

Layout
Accuracy

SHARE PAGE  




You need to log in to post comments