Guitar Tabs, Chords and Lyrics


More Than Us  Travis

E -------------------------0----|


B --------------1----------1----|


G --------0--2-----2--0----0----|

D --0--2-----------------2------|
A ------------------------------|
E ------------------------------|
E --0----|
B -----1-|
G -------|
D -------|
A -------|
E -------|
E --1----|
B -----0-|
G -------|
D -------|
A -------|
E -------|
B -------|
G -------|
D -------|
A -------|
E -------|
E -------------------------------------------------|
B --------------1----------------------------------|
G --------0--2-----2--0-----------0----------------|
D --0--2-----------------2--0--2-----2--0--2--0----|
A -----------------------------------------------3-|
E -------------------------------------------------|
E --0------------|
B --1------------|
G --2------------|
D --2--------1/2-|
A --0--2--3------|
E ---------------|
[C]                                     
Verse1
[C]More than us, we are them
[F]They don't know [C]whats in their hands
[C]Its more than you and its [G7]more than I
[F]but its more
[Fm]Everybody calls it love [E]but i'm not really sure
[Am]if its love, [D]at all
[Dm]Not any more.

Verse2
[C]                                     
[C]More than he, more than she
[F]they all sleep, [C]but we just dream
[C]more or less, [G7]means more for us
[F]but its more,
[Fm]everybody wants a hand but i[E]'m to busy holding up the w[Am]orld
[D]to carry on, [Dm]no not any more

Bridge
[C]                                     
[F]I wish that i could [Fm]fly, fly, fly away
[F]and if i should call [Fm]and you hear me call
would you[G7] stay, hey hey now

Verse3
[C]More than us we are them
[F]they don't know whats i[C]n their head
[C]its more than you and [G7]its more than i
[F]but its more
[Fm]every body calls it love but [E]i'm not really sure
[Am]if its love at[D] all
[Dm]not anymore,
[C]anymore,
[C]anymore

Another little trick you can do is lift you middle finger on and off the third
string on the F chords in the Verse while you strum to make it sound even cooler.
Make sure you pull off from the second fret to open though, but start the
hammer-ons from open.
And although it doesn't happen in the song, when you play the G7 in the bridge I
think it sounds good to pull your index finger off the G7 when Fran sings the
first "Hey" and put it back on when he sings the second. But thats just me :)

Comments to nasteve45@hotmail.com

Important: The song above is NOT stored on the Chordie server. The original song is hosted at www.guitaretab.com. Chordie works as a search engine and provides on-the-fly formatting. Chordie does not index songs against artists'/composers' will. To remove this song please click here.

Text color:
Chord color:
Chord grids: 
Font size:    
Page size: 

Am C D Dm E F Fm G7
variations - click chord images

Login - add to songbook

Transpose chords

Tuning

Rating click stars to rate

Layout
Accuracy

SHARE PAGE  




You need to log in to post comments