Guitar Tabs, Chords and Lyrics


Love You Anyway  Travis



----------3--3----------------0--0---------------0--0------------3--3---------|

----------3--3----------------1--1---------------1--1------------3--3---------|
----------0--0----------------2--2---------------2--2------------0--0---------|
-----0----0--0--------0-------2--2-------0-------2--2-------0----0--0---------|
-0h2---2--2--2----0h2---2--0--0--0---0h2---2-2-0-0--0---0h2---2--2--2---------|
--------3-3--3---------------------------------------------------3--3---------|
----------------2--------3--------3-----------3-------------------------------|
----------------3--------3--------3--3/5------3-------------------------------|
-------------2--2--------0--------0------2/4--0-------------------------------|
-----0-----0----0-----2--2-----0--0-----------0-------------------------------|
-0h2---2------------3----3---2----2-----------2-------------------------------|
----------------------------------------------3-------------------------------|
In[Am]side the cinema
You looked so beautiful

D - G/C - G/B - fill
I almost had to go

[G]And when I got outside
I [Am]thought of you again
I think you should be framed

In [D]so[-]me[G/C] Fin[-]e [G/B]Art [-]ga[G/A]llery
Am D - G/C - G/B - Intro
I know you'd disagree with me. But I love you anyways

Should I climb high my
Dreary city walls
They make me feel so small
Oh let me fade away
This city's so cold and old
Forever rain or snow
I'd really love to come and go
[D]Oh[-] w[G/C]on't[-] y[G/B]ou s[-]ta[G/A]y with me
I[Am] know you'd disagree with[D-Dsus4-D-Dsus2-D] me
Am D - G/C - G/B - Intro
I just know you'd disagree

But I love you anyways
You were on my mind
Inside the cinema
You looked so beautiful
I almost dried an eye
And when I got outside
I caught the 44
It dropped me outside my front door
Forgot what I'd been living for


[D-Dsus4-D-Dsus4]                [G/C]        [G/B]        [G/A]     

Important: The song above is NOT stored on the Chordie server. The original song is hosted at www.guitaretab.com. Chordie works as a search engine and provides on-the-fly formatting. Chordie does not index songs against artists'/composers' will. To remove this song please click here.

Text color:
Chord color:
Chord grids: 
Font size:    
Page size: 

Am D G G/B G/C
variations - click chord images

Login - add to songbook

Transpose chords

Tuning

Rating click stars to rate

Layout
Accuracy

SHARE PAGE  




You need to log in to post comments