Guitar Tabs, Chords and Lyrics


Happy To Hang Around  Travis

----------------------------------------------------------------------------



----------------------------------------------------------------------------

e|-----10------9-----7------------------------|
B|--7------7------7---------10-----8---8------|
G|--------------------------------------------|
D|--------------------------------------------|
A|--------------------------------------------|
E|--------------------------------------------|
[Em]They were following me
They were following every[C]one [Cadd9]
They had vi[Em]sions of me
Holding hands walking in to the s[C]un [Cadd9]
Now pe[Em]ople get down, people get down, people get hu[C]rt [Cadd9]
When yo[Em]u did it to me
I was already in the gro[C]und   [Cadd9]
And I'll n[D]ever get into your he[C]art
No I do[Em]n't even wa[D]nt to st[C]art
I'll ne[D]ver get into your he[C]art
I'm just h[Em]appy to ha[D]ng aro[C]und
H[Em]appy to ha[D]ng aro[C]und
H[Em]appy to ha[D]ng aro[C]und.  [Em]
*Este solo va al mismo tiempo que el siguiente verso (recomiendo oir la canción)
*This riff goes at the same time that the following verse (I recommend
to oir the song))
e|---14-14-14-12---------------|-----------------------------------------|
B|----------------15-15-15-14--|--14-12-10-12----12-12---10-12----12-12--|
G|-----------------------------|---------------12------12-------12-------|
D|-----------------------------|-----------------------------------------|
A|-----------------------------|-----------------------------------------|
E|-----------------------------|-----------------------------------------|
e|----------------------------|
B|------10-12-------10-12-----|
G|---12----------12-----------|
D|----------------------------|
A|----------------------------|
E|----------------------------|


(Se repite 3 veces más) (repeat 3 more times)


e|-----9-------10--|
B|-------7--10-----|
G|-----------------|
D|-----------------|
A|-----------------|
E|-----------------|
e|-----10------9-----7------------------------|
B|--7------7------7---------10-----8---8------|
G|--------------------------------------------|
D|--------------------------------------------|
A|--------------------------------------------|
E|--------------------------------------------|


[Em]Take a picture of me
And show it to everyo[C]ne, [Cadd9]
No m[Em]ore pictures of you
No more love, no more setting s[C]un  [Cadd9]
Now pe[Em]ople get down, people get down, people get h[C]urt [Cadd9]
When you d[Em]id it to me
I was already in the d[C]irt  [Cadd9]

And I'll n[D]ever get into your he[C]art
No I do[Em]n't even wa[D]nt to st[C]art
I'll ne[D]ver get into your he[C]art
I'm just h[Em]appy to ha[D]ng aro[C]und
H[Em]appy to ha[D]ng aro[C]und
H[Em]appy to ha[D]ng aro[C]und.    [Em]    [D]   [C]
Solo (Guitarra Eléctrica con distorsión) (Electric Guitar With Distortion)
(La guitarra acústica continúa...) (Acoustic Guitar Continues...)

      [Em]                            [C]                                                                          
e|----------------------------|-----------------------------|
B|----------------------------|-----------------------------|
G|----4-4-4-4--4-4-4-4--4-4-4-|-----------------------------|
D|----4-4-4-4--4-4-4-4--4-4-4-|---5-5-5-5--5-5-5-5--5-5-5---|
A|----2-2-2-2--2-2-2-2--2-2-2-|---5-5-5-5--5-5-5-5--5-5-5---|
E|----------------------------|---3-3-3-3--3-3-3-3--3-3-3---|


      [Em]                            [C]                                                                          
e|----------------------------|-----------------------------|
B|----------------------------|-----------------------------|
G|----4-4-4-4--4-4-4-4--4-4-4-|-----------------------------|
D|----4-4-4-4--4-4-4-4--4-4-4-|---5-5--5-7-7-7-7-7-7--------|
A|----2-2-2-2--2-2-2-2--2-2-2-|---5-5--5-7-7-7-7-7-7--------|
E|----------------------------|---3-3--3-5-5-5-5-5-5--------|

      [Em]                            [C]                                                                          
e|----------------------------|-----------------------------|
B|----------------------------|-----------------------------|
G|----4-4-4-4--4-4-4-4--4-4-4-|-----------------------------|
D|----4-4-4-4--4-4-4-4--4-4-4-|---5-5-5-5--5-5-5-5--5-5-5---|
A|----2-2-2-2--2-2-2-2--2-2-2-|---5-5-5-5--5-5-5-5--5-5-5---|
E|----------------------------|---3-3-3-3--3-3-3-3--3-3-3---|

      [Em]                            [C]                                                                          
e|----------------------------|-------------------------9---|
B|----------------------------|-------------------------10--|
G|----4-4-4-4--4-4-4-4--4-4-4-|-------------------------9---|
D|----4-4-4-4--4-4-4-4--4-4-4-|---5-5-5---7-7-7--9-9-9------|
A|----2-2-2-2--2-2-2-2--2-2-2-|---5-5-5---7-7-7--9-9-9------|
E|----------------------------|---3-3-3---5-5-5--7-7-7------|

Lo siguiente va al mismo tiempo que el verso (Following riff goes at the same time that the verse):

e|-----9-------10--|
B|-------7--10-----|
G|-----------------|
D|-----------------|
A|-----------------|
E|-----------------|
e|-----10------9-----7------------------------|
B|--7------7------7---------10-----8---8------|
G|--------------------------------------------|
D|--------------------------------------------|
A|--------------------------------------------|
E|--------------------------------------------|


And I'll n[D]ever get into your he[C]art
No I do[Em]n't even wa[D]nt to st[C]art
I'll ne[D]ver get into your he[C]art
I'm just h[Em]appy to ha[D]ng aro[C]und
H[Em]appy to ha[D]ng aro[C]und
H[Em]appy to ha[D]ng aro[C]und.

----------------------------------------------------------------------------

Hey ¡visita Travis-México! Totalmente en español
http://mx.geocities.com/travismexicoweb/
¿más correcciones? muygallito@yahoo.com.mx

Important: The song above is NOT stored on the Chordie server. The original song is hosted at www.guitaretab.com. Chordie works as a search engine and provides on-the-fly formatting. Chordie does not index songs against artists'/composers' will. To remove this song please click here.

Text color:
Chord color:
Chord grids: 
Font size:    
Page size: 

C Cadd9 D Em
variations - click chord images

Login - add to songbook

Transpose chords

Tuning

Rating click stars to rate

Layout
Accuracy

SHARE PAGE  




You need to log in to post comments