Guitar Tabs, Chords and Lyrics


life Krisys  Travis



Intro: C C* C X3


Verse:
C C* C
Memories fill your harbor
History to be made
Jealousy in the cupboard
You with me until the grave


Chorus:
Mid-life [Am]krysis, you invi[F]ted every[C]one...[Cmaj7]....
You can't w[Am]ake, you can't wa[C]ke from this night[F]mare


Verse:

Repeat Fig. --1-- trought this verse :

Everyday is like the movies
Third world war on the rise
Take it in the city
Making love to get high

Fig. --1--

e |----8---8---7---7--------------------------------------------------------|
b |---------------------10---10-----8---8-----------------------------------|
g |------9---9---9---9-----9----9-----9---9---------------------------------|
d |-------------------------------------------------------------------------|
a |-------------------------------------------------------------------------|
e |-------------------------------------------------------------------------|



Chorus:


Mid-life [Am]krysis, you invi[F]ted every[C]one...[Cmaj7]....
You can't w[Am]ake, you can't wa[C]ke from this night[F]mare
Bridge:


[Am]I waste my tim[F]e, I waste my
[C]Don't waste my time, [Cmaj7]don't waste my
[Am]I waste my tim[F]e, I waste my
[C]Don't waste my time, d[Cmaj7]on't waste my
Verse:


Am Am* Am
Little Jane, say you're in love with me
Say it yourself
Maybe then you'll have some children
Maybe you ain't have one


Chorus:


Mid-life [Am]krysis, you invi[F]ted every[C]one...[Cmaj7]....
You can't w[Am]ake, you can't wa[C]ke from this night[F]mare
End:


C C* C X2

you can finish the song this way

e |----8---8---7---7--------------------------------------------------------|
b |---------------------10---10-----8---8-----------------------------------|
g |------9---9---9---9-----9----9-----9---9---------------------------------|
d |-------------------------------------------------------------------------|
a |-------------------------------------------------------------------------|
e |-------------------------------------------------------------------------|      x3



my email - brmcdanielmx@hotmail.com

cheers for your comments.

Important: The song above is NOT stored on the Chordie server. The original song is hosted at www.guitaretab.com. Chordie works as a search engine and provides on-the-fly formatting. Chordie does not index songs against artists'/composers' will. To remove this song please click here.

Text color:
Chord color:
Chord grids: 
Font size:    
Page size: 

Am C Cmaj7 F
variations - click chord images

Login - add to songbook

Transpose chords

Tuning

Rating click stars to rate

Layout
Accuracy

SHARE PAGE  




You need to log in to post comments