Guitar Tabs, Chords and Lyrics


Selfish Jean   Travis



This is THE first time I grab a guitar (seriously no joke.)
so there might be several mistakes 
let me know if anybody finds one
and enjoy! :]

E---15----------------------------------------------------------------|
B---16-----16--------16-----18-----16-----------16-----18-------------|
G---------------15------------------------15--------------------------|
D---------------------------------------------------------------------|
A---------------------------------------------------------------------|
E---------------------------------------------------------------------|

E---15----------------------------------------------------------------|
B----------16--------16-----18-----16-----------16-----18-------------|
G---------------15------------------------15--------------------------|
D---------------------------------------------------------------------|
A---------------------------------------------------------------------|
E---------------------------------------------------------------------|
 

E---------------------------------------------------------------------|
B----------16-----15--------------16-----------------------------16---|
G---12-------------------12---------------15------12------15----------|
D---------------------------------------------------------------------| x 2
A---------------------------------------------------------------------|
E---------------------------------------------------------------------|

E---15----------------------15------------------------15--------------|
B---16-----16--------16----------16----------16-----------------------|
G---------------15---------------------15-----------------------------|
D---------------------------------------------------------------------|
A---------------------------------------------------------------------|
E---------------------------------------------------------------------|

E---16----------------------16------------------------15--------------|
B---16-----16--------16----------16-----------16----------------------|
G---------------15------------------------15--------------------------|
D---------------------------------------------------------------------|
A---------------------------------------------------------------------|
E---------------------------------------------------------------------|

E---15----------------------------------------------------------------|
B---16-----16--------16-----18-----16-----------16-----18-------------|
G---------------15------------------------15--------------------------| x 2 
D---------------------------------------------------------------------| 
A---------------------------------------------------------------------|
E---------------------------------------------------------------------|

E---15~------|
B---16~------|
G------------|
D------------|
A------------|


Important: The song above is NOT stored on the Chordie server. The original song is hosted at www.guitaretab.com. Chordie works as a search engine and provides on-the-fly formatting. Chordie does not index songs against artists'/composers' will. To remove this song please click here.

This song is displayed as text-only. Transposing and tuning is only available for chordpro-songs.

Login - add to songbook

Rating click stars to rate

Layout
Accuracy

SHARE PAGE  




You need to log in to post comments