Guitar Tabs, Chords and Lyrics


I Dont Know  Treble Charger

E----------------------------||


B-------------0-1h3-1-0-1-1--||


G.-----0h2-0----------------.||

D.---2----------------------.|| <--- Repeat
A--3-------------------------||
E----------------------------||
[C]I know that I have to/
[Am]Sleep at night and/
[Em]We all need someone to/
[G]blame/
[C]No one has ever/
[Am]Realized that/
[Em]We all get tired/
[G]Again
Pre-chorus:

[Em]I think I've been cast in the/
[Am]Wrong play, My lines
[Dm]were written on the day/
[Em]Before.

Chorus:
[C]I can see there's/
[Am]nothing out there that/
[D]I don't know/
[G]but I don't know
[C]it can be such
[Am]empty logic
[D]that I dont' know
[G]I don't know

Bridge: I have no clue yet, but I someone know's can you please e mail me
and let me know!

Ending riff:

E----------------------------|--------------------------------|
B--------------0-1h3-1-0-1-0-|-------------0-1h3-1-0----------|
G.------0h2-0----------------|-------0h2-0-----------2-0-----.|
D.----2----------------------|----2--------------------------.|
A---3------------------------|-3------------------------------|
E----------------------------|--------------------------------|

repeat this riff until music fades.

Important: The song above is NOT stored on the Chordie server. The original song is hosted at www.guitaretab.com. Chordie works as a search engine and provides on-the-fly formatting. Chordie does not index songs against artists/composers will. To remove this song please click here.

Text color:
Chord color:
Chord grids: 
Font size:    
Page size: 

Am C D Dm Em G
variations - click chord images

Login - add to songbook

Transpose chords

Tuning

Rating click stars to rate

Layout
Accuracy

SHARE PAGE  




You need to log in to post comments