Guitar Tabs, Chords and Lyrics


What You Want   Treble Charger



Title: What you Want

Artist: Treble Charger

Album: Detox

Tuning: Standard (EADGBE)

Key:
/ = slide up
\ = slide down
* = let ring
. = palm mute
b = bend
h = hammer on
p = pull off
< > = pick fast
( ) = harmonic

Intro:

Guitar 1:

E|-------------6-----------------------------6-------------------|
B|-6-7-6---9--------6-7-6---9----6-7-6---9-------9---7---6---7---|
G|-------6---6---6--------6---6--------6---6---6---6---6---6---6-|
D|---------------------------------------------------------------| x 2
A|---------------------------------------------------------------|
E|---------------------------------------------------------------|

Guitar 2 (comes in a little after Guitar 1):

E|-------------------------------------------------|
B|-------------------------------------------------|
G|-------------------------------------------------|
D|-6-6-6-6-6-6-6-6-6-6-6-6-------------------------| x 2
A|-4-4-4-4-4-4-4-4-4-4-4-4-4-4-4-4-4-4-4-4-6-4-3-4-|
E|-------------------------2-2-2-2-2-2-2-2-4-2-1-2-|

Verse:

Both Guitars:

E|-------------------------------------------------|
B|-------------------------------------------------|
G|-------------------------------------------------|
D|-------------------------------------------------| x 2
A|-4-4-4-4-4-4-6-6-6-6-6-6-4-4-4-4-4-4-3-3-3-3-3-3-|
E|-2-2-2-2-2-2-4-4-4-4-4-4-2-2-2-2-2-2-1-1-1-1-1-1-|
   ...   ...   ...   ...   ...   ...   ...   ... 

Prechorus:

Guitar 2:

E|--------------------------------|
B|--------------------------------|
G|-----------------6--6-6--3--3-3-|
D|-----------------4--4-4--1--1-1-| x 2
A|-4--4-4--6--6-6-----------------|
E|-2--2-2--4--4-4-----------------|

E|---------------------------|
B|---------------------------|
G|---------------------------|
D|---------------------------|
A|-4--4-4--4--4-4--6--6-6--6-|
E|-2--2-2--2--2-2--4--4-4--4-|

Guitar 1 (then comes in with):

E|-----------------|---------------|---------------------|
B|-----------------|---------------|---------------------|
G|-6/8-8/10-10\8-8-|-3/5-5/6-6/8-8-|-8\6-6\5-5\3-3-------|
D|-----------------|---------------|---------------------|
A|-4/6-6/-8--8\6-6-|-1/3-3/4-4/6-6-|-6\4-4\3-3\1-1-6---6-|
E|-----------------|---------------|---------------4---4-|
  First Time         Second Time     Third Time

Chorus:

Guitar 2:

E|--------------------|
B|--------------------|
G|--------------------|
D|-6-6--5-5--3-3------| x 4
A|-4-4--3-3--1-1--4-4-|
E|----------------2-2-|

Guitar 1:

E|------------------------|
B|------------------------|
G|-6-6--8-8--10-10--13-13-|
D|------------------------| x 4
A|-4-4--6-6---8--8--11-11-|
E|------------------------|


Intro

Verse (all palm muted)

Prechorus

Chorus


Bridge (when singing resumes):

Guitar 2:

E|-------------------------------------------------|
B|-------------------------------------------------|
G|-------------------------------------------------|
D|-6-6-6-6-6-6-5-5-5-5-5-5-6-6-6-6-6-6-8-8-8-8-8-8-| x 3
A|-4-4-4-4-4-4-3-3-3-3-3-3-4-4-4-4-4-4-6-6-6-6-6-6-|
E|-------------------------------------------------|

Guitar 1:

E|------------------------------------10b----10b-------10b-----10b-|
B|-----------------------------------------------------------------|
G|-7b----7b--------7b-----7b---------------------------------------|
D|-----------------------------------------------------------------|
A|-----------------------------------------------------------------|
E|-----------------------------------------------------------------|

Instrumental/Solo:

Guitar 2:

E|--------------------|
B|--------------------|
G|--------------------|
D|-6-6--5-5--3-3------| x 4
A|-4-4--3-3--1-1--4-4-|
E|----------------2-2-|

Guitar 1:

E|--------------------|
B|--------------------|
G|-6-6--5-5--3-3------|
D|----------------4-4-| x 2
A|-4-4--3-3--1-1------|
E|----------------2-2-|

E|------------------------|
B|------------------------|
G|-6-6--8-8--10-10--13-13-|
D|------------------------| x 4
A|-4-4--6-6---8--8--11-11-|
E|------------------------|


Chorus
 
Intro Riff comes in (Guitar 1)

End

Tabber: Winno

Email: winnorulz@hotmail.com


Important: The song above is NOT stored on the Chordie server. The original song is hosted at www.guitaretab.com. Chordie works as a search engine and provides on-the-fly formatting. Chordie does not index songs against artists/composers will. To remove this song please click here.

This song is displayed as text-only. Transposing and tuning is only available for chordpro-songs.

Login - add to songbook

Rating click stars to rate

Layout
Accuracy

SHARE PAGE  




You need to log in to post comments