Chordie logo

Cant Wake Up   Treble Charger



Tabbed By: Mike

x = muted note
* = harmonic
b = bend string
r = release bend
p = pull off
/ = slide up
\ = slide down
~ = let ring
^() = bend the string until it sounds like
      a normal note would sound played on the fret listed
      in brackets  -- 13^(15) bend the string on the 13th
                              fret until it sounds like ur
                              just hitting the string normally
                              on the 15th fret.

 Verse 1:  this is the bass part in the beginning

G----------------------------------|
D------7---7-7-7-------4---5-5-5-4-|
A--5-5---5-------0-2-2---2---------|
E----------------------------------|

  after the bass plays the above 4x then the guitar starts with this
e----------------------------------|
B----------------------------------|
G--7-7-7-7-7-7-7-7-7-7-7-7-7-7-7-7-|
D--x-x-x-x-x-x-x-x-x-x-x-x-x-x-x-x-|
A--5-5-5-5-5-5-5-5-5-5-5-5-5-5-5-5-|
E----------------------------------|

  Then both guitars play
e-------------------|
B-------------------|
G--7777-------------|  x4
D--7777777799995555-|
A--5555777799995555-|
E------555577773333-|

 Pre-chorus
   guitar 1
e------------|
B------------|  x2
G------------|
D--2-22-5-5x-|
A--2-22-5-5x-|
E--0-00-3-3x-|

 im not exactly sure what the other guitar plays here
  but it sounds like this
e--------------------------------5*-|
B---------------5*-------------5*---|
G--9-9\7-12---5*----9-9\7-12-5*-----|
D--x-x-x--x-5*------x-x-x--x--------|
A--7-7\5-10---------7-7\5-10--------|
E-----------------------------------|

 Chorus
         guitar 1
e------------------------------|
B------------------------------|
G--7-7-77--------5-5-55--------| x2
D--7-7-77-3-3-33-5-5-55-5-5-55-|
A--5-5-55-3-3-33-3-3-33-5-5-55-|
E---------1-1-11--------3-3-33-|

	 guitar 2 - the last little part im not sure about
                    cause its really hard to make out
e---------------------------------------|
B---------------------------------------|
G--7-7-77--------5-5-55-----------------| x2
D--7-7-77-3-3-33-5-5-55-5---------------|
A--5-5-55-3-3-33-3-3-33-5-10-9-7--------|
E---------1-1-11--------3--------10-9-8-|

 after chorus

e----------------------|
B----------------------| x2
G--7\6--7\6------------|
D--7\6--7\6--22-55-777-|
A--5\4--5\4--22-55-777-|
E------------00-33-555-|

then
	guitar 1
e-------------------|
B-------------------|
G-------------------|
D--9-99957-777-7777-|
A--9-99957-777-7777-|
E--7-77735-555-5555-|
            pm ....

	guitar 2
e---------------------|
B--0-30-357--57brp5-3-|
G---------------------|
D---------------------|
A---------------------|
E---------------------|

Verse 2:
	guitar 1
e-------------------|
B-------------------|
G--7777-------------|  x4
D--7777777799995555-|
A--5555777799995555-|
E------555577773333-|
pm ................

        guitar 2
e----------------------------------|
B----------------------------------|
G--7-7-7-7-7-7-7-7-7-7-7-7-7-7-7-7-|
D--x-x-x-x-x-x-x-x-x-x-x-x-x-x-x-x-|
A--5-5-5-5-5-5-5-5-5-5-5-5-5-5-5-5-|
E----------------------------------|

e-----------------------------------------------------|
B-----------------------------------------------------|
G--11-11-11-11-11-11-11-11/12-11-11-11-11-11-11-11-11-|
D---x--x--x--x--x--x--x--x--x--x--x--x--x--x--x--x--x-|
A---9--9--9--9--9--9--9--9/10--9--9--9--9--9--9--9--9-|
E-----------------------------------------------------|

play pre-chorus and chorus again

Bridge:
	guitar 1
e--------------------------|
B--------------------------| x4
G--7--7--------------------|
D--7--7--3--3--8--8--7--57-|

A--5--5--3--3--8--8--7--57-|
E--------1--1--6--6--5--35-|

	guitar 2 - im not sure but these notes sort of sound like
                   pinch harmonics
e-------------------------------------------------------------------------|
B--10--7--10-8-6-86--3--6-8/10\8-6-8-10--7--10-8-6-86--3--6-8/10\8-8/10\8-| x2
G-------------------------------------------------------------------------|
D-------------------------------------------------------------------------|
A-------------------------------------------------------------------------|
E-------------------------------------------------------------------------|

Solo:   guitar 1
e-----------------------------------|
B-----------------------------------| x2
G--7-777777--------5-555555---------|
D--7-7777773-3333335-5555555-555555-|
A--5-5555553-3333333-3333335-555555-|
E----------1-111111--------3-333333-|

   now for the lead guitar the solo is a friegen mess and its really hard to
   hear what he's playin cause it sounds like he doesn't even know himself.
     But i know that it starts something like this...

e-----------------------------10h12p10-10h12p10...-| then i can't make
B---10-10-10-10-----13^(15)r-----------------------| out the rest.
G--------------------------------------------------|
D--------------------------------------------------|
A--------------------------------------------------|
E--------------------------------------------------|

  and it ends something like this
e---------------------------------|
B--------------------------13/15--|
G--/12-10-9-----------------------|
D-----------12-10-9---------------|
A-------------------12-11---------|
E---------------------------------|

After solo play chorus 2x

Then play this part again 3x
e----------------------|
B----------------------|
G--7\6--7\6------------|
D--7\6--7\6--22-55-777-|
A--5\4--5\4--22-55-777-|
E------------00-33-555-|


guitar 1 ends with

e----------------------|
B----------------------|
G-------------------7~-|
D--9-99957-777-555--7~-|
A--9-99957-777-555--5~-|
E--7-77735-555-333-----|

guitar 2 ends with

e----------------------|
B--0-30-357--57brp5-3~-|
G----------------------|
D----------------------|
A----------------------|
E----------------------|

sorry i couldn't get the solo but it sounds really fucked up


Important: The song above is NOT stored on the Chordie server. The original song is hosted at www.guitaretab.com. Chordie works as a search engine and provides on-the-fly formatting. Chordie does not index songs against artists/composers will. To remove this song please click here.

This song is displayed as text-only. Transposing and tuning is only available for chordpro-songs.

Login - add to songbook

Rating click stars to rate

Layout
Accuracy

SHARE PAGE  



You need to log in to post comments