Chordie logo


Sick Boogie Murder   Trepalium



official website: www.myspace.com/trepal 

Tabbed by: Arkanis
Email: lerror_systeml@hotmail.com

Tuning: CGCFAD

riff 1
-------------------------------------------------------------------------||
-------------------------------------------------------------------------||
-------------------------------------------------------------------------||
--4/6--0--2--3--2--0--2-3-0--4/6-0--2--3--2--0---2-0---------------------||x4
--4/6--0--2--3--2--0--2-3-0--4/6-0--2--3--2--0---2-0---------------------||
--4/6--0--2--3--2--0--2-3-0--4/6-0--2--3--2--0---2-0---------------------||
       .  .  .  .  .  . . .      .  .  .  .  .   . .

riff 2
----------------------------------------------------------------------------
----------------------------------------------------------------------------
----------3h5-----------------5/7-7-7\5-5---------------------3h5-----------
-0------4-----6-------4h6--0----------------4-4-4h6--0------4-----6---------
-0--3h5---------5--3~-4h6--0--3/5-5-5\3-3---4-4-4h6--0--3h5---------5--3~---
-0--------------------4h6--0----------------4-4-4h6--0----------------------
 .                 ah                      


------------------------------7/8-8-8---------------------------------------
------------------------------7/8-8-8---------------------------------------
------------------------------7/8-8-8---------------------------------------
---------5/7-7-7\5-5-------------------------3h5-----------------5/7-7-7\5-5
-4h6--0-----------------4-4----------------4-----6-------4h6--0-------------
-4h6--0--3/5-5-5\3-3----4-4------------3h5---------5--3~-4h6--0--3/5-5-5\3-3
-4h6--0-----------------4-4------------------------------4h6--0-------------
      

--------------------------------------------------------------------------||
--------------------------------------------------------------------------||
--------------------3h5-----------------5/7-7-7\5-5-----------------------||
--4-4-4h6-0-------4-----6-------4h6--0----------------4-4---xxxxxx-x------||
--4-4-4h6-0---3h5---------5--3~-4h6--0--3/5-5-5-3-3---4-4---xxxxxx-x------||
--4-4-4h6-0---------------------4h6--0----------------4-4---xxxxxx-x------||
                                             

riff 1
riff 2

-------------|
-------------|
--3----------|
--2----------|
--1----------|
--2----------|


riff 3
----------------------------------|
----------------------------------|
-------9---------8----------------|
--7----9----3----8----------------|
--7----7----3----6----------------|
--7---------3---------------------|

riff4
---------------------------------|
---------------------------------|
---------------------------------|
-------2--5-1-1~-------2-1-1h2---| x4
-0h2h3-----------3-0-3-----------|
---------------------------------|

riff 3
riff 4
riff 3


/   slide up
\   slide down
h   hammer-on
p   pull-off
~   vibrato
+   harmonic
x   Mute note


Important: The song above is NOT stored on the Chordie server. The original song is hosted at www.guitaretab.com. Chordie works as a search engine and provides on-the-fly formatting. Chordie does not index songs against artists/composers will. To remove this song please click here.

This song is displayed as text-only. Transposing and tuning is only available for chordpro-songs.

Login - add to songbook

Rating click stars to rate

Layout
Accuracy

SHARE PAGE  




You need to log in to post comments