Guitar Tabs, Chords and Lyrics


La Derobee De Guingamp   Tri Yann



Subject: "La Derobee de Guingamp" by TRIYAN 
Date: Sat, 16 Dec 95 15:41:51 +0000
LA DEROBEE DE GUINGAMP 
	performed by TRIYAN (from the Album Inventaire) :

Transcribed by Stephane Lemetayer : slemetay@merlin.enssat.fr
This is the way the electric guitar is playing ...(distorsion).
It is played alone once and then with the Bombards

1st part:

B|---------------8|-------------------|
G|8-88-78 10-8 10-|8-88-78 10-87-----o|
D|----------------|--------------10--o|
A|----------------|-------------------|

B|----8--------------|------8---------------|
G|8 10-7 10 10 878---|--8 10--7 10 10 87---o|
D|----------------10-|------------------10-o|
A|-------------------|----------------------|

B|---------------8|-------------------|
G|8-88-78 10-8 10-|8-88-78 10-87-----o|
D|----------------|--------------10--o|
A|----------------|-------------------|

B|----8-------------|------8---------------|
G|8 10-7 10 10 878--|--8 10--7 10 10 87---o|
D|----------------10|------------------10-o|
A|------------------|----------------------|

2nd part:

e|----------------|---------------|
B|8-98----8-------|8-98----------o|
G|----10 8-10 8---|----10 878----o|
D|-------------10-|----------10---|

e|----------------|---------------|----------------|--------------|
B|----------------|8-98-------8---|----------------|8-98----------|
G|--78--78-10-78--|----10 87------|--78--78-10-78--|----10 878----|
D|10--10--------10|---------10----|0---10--------10|-----------10-|

e|----------------|---------------|
B|8-98----8-------|8-98----------o|
G|----10 8-10 8---|----10 878----o|
D|-------------10-|----------10---|

e|----------------|---------------|----------------|--------------|
B|----------------|8-98-------8---|----------------|8-98----------|
G|--78--78-10-78--|----10 87------|--78--78-10-78--|----10 878----|
D|10--10--------10|---------10----|0---10--------10|-----------10-|

Follows a part with only flute, 
then the guitar plays the same thing than flute.

B|-----------------------|-----------------------|
G|---5-87-55--3-3--------|---5-87-55-3-3---------|
D|535----------5-5313-35-|535---------5-5-313-3--|
A|-----------------------|---------------------3-|

B|-----------------------|
G|-----------5-87-5-3-5-o|
D|-01-013-135-----------o|
A|3----------------------|

You follow with the 1st part
and then tis modified second part:

e|----------------|---------------|
B|8-98----8-------|8-98----------o|
G|----10 8-10 8---|--------------o|
D|-------------10-|---------------|

e|----------------|---------------|----------------|--------------|
B|----------------|8-98-------8---|----------------|8-98----------|
G|--78--78-10-78--|----10 87------|--78--78-10-78--|----10 878----|
D|10--10--------10|---------10----|0---10--------10|-----------10-|

e|----------------|---------------|
B|8-98----8-------|8-98----------o|
G|----10 8-10 8---|----10 878----o|
D|-------------10-|----------10---|

e|----------------|---------------|----------------|--------------|
B|----------------|8-98-------8---|----------------|8-98----------|
G|--78--78-10-78--|----10 87------|--78--78-10-78--|----10 878----|
D|10--10--------10|---------10----|0---10--------10|-----------10-|



Important: The song above is NOT stored on the Chordie server. The original song is hosted at www.guitaretab.com. Chordie works as a search engine and provides on-the-fly formatting. Chordie does not index songs against artists'/composers' will. To remove this song please click here.

This song is displayed as text-only. Transposing and tuning is only available for chordpro-songs.

Login - add to songbook

Rating click stars to rate

Layout
Accuracy

SHARE PAGE  




You need to log in to post comments