Guitar Tabs, Chords and Lyrics


Broken One  Trivium

 -E-  -A- -B7-|


|-0- |-0- |-2-|


|-0- |-2- |-0-|

|-0- |-1- |-1-|
|-0- |-0- |-2-|
|-0- |-2- |-0-|
|-0- |-0- |---|
|-0-0--------------------------------0-0----------0--------0---|
|-0-0--------------------------------2-0----------2------------|
|-0-0--------------------------------1-0----------1------------|
|-0-0-------------------------------0--0----------0--------0---|
|-0-0------------------------------2---0----------2-------0----|
|-0-0-----------------------------0----0----------0-------0----|
|-------------0-0-----------------------2-2---------|
|-------------2-0-----------------------0-0---0-----|
|-------------1-0-----------------------1-1---1-----|
|------------0--0-----------------------2-0h2-0-0-0-|
|-----------2---0-----------------------0-0-----1-0-|
|----------0----0-----------------------------------|
[E]So cry if you want to [E]  [A]  [E]
[E]ya, you can come un[A]done
[A]but you're gotta have a [B7]heart to have a broken o[A]ne[E]  [B7]   [E]
--Solo--
|-0-2-3-4--4-7-4-2-0-2-4-2-0-----0--4-7-4-2-0---0-|
|----------------------------2-0-0------------2-0-|
|--------------------------------0------------1-0-|
|-0-2-3-4--4-7-4-2-0-2-4-2-0-----0--4-7-4-2-0-0-0-|
|--0-0-0---------------------2-0-0------------2---|
|--------------------------------0----------------|


--VERSE--
[E]You can take your accusations [E]  [A]  [E]
[E]You can have all your r[A]ecords [E]back
E B7 (same as chorus)
You can have an opinion or a heart attack
[E]Cause if you lose a kindred spirit[A]  [E]
[E]You'll find another o[A]ne
[A]But you've gotta pull the t[B7]rigger to have a smoking g[A]un[E]  [B7]   [E]

--CHORUS-- (play through with chords instead of picking)

--BRIDGE--
[B7]Oh, my girl
It must be [A]so tight in your[E] skin
[B7]Cause there's no room to breath
[A]This fantasy you're living [B7]in

--VERSE--
(play like the first chorus at begining)
I need a new perspective
Yes, I need a fresh start
I need a girl like you like a stolen car
(play chords)
[E]Beacuse we all love the joyr[A]id[E]e
until you wind up dea[A]d
[A]See you don't need a [B7]heart to have a swollen he[A]ad[E]  [B7]   [E]

--CHORUS--

to watch a video of Luke playing this song, go to YouTube or paste this into your
--> http://youtube.com/watch?v=vt_wZ8H7R0s

Important: The song above is NOT stored on the Chordie server. The original song is hosted at www.guitaretab.com. Chordie works as a search engine and provides on-the-fly formatting. Chordie does not index songs against artists'/composers' will. To remove this song please click here.

Text color:
Chord color:
Chord grids: 
Font size:    
Page size: 

A B7 E
variations - click chord images

Login - add to songbook

Transpose chords

Tuning

Rating click stars to rate

Layout
Accuracy

SHARE PAGE  




You need to log in to post comments