Guitar Tabs, Chords and Lyrics


A Girl Named Tex   Trocadero


---==============================================================---











e|-----------|-----------|-----------|-----------|-----------|



B|-----------|-----------|-----------|-----------|-----------|



G|-----------|-----------|-----------|-----------|-----------|



D|------2---2|----2---2--|------2---2|----2---2--|------2---2|



A|-----------|-----------|-----------|-----------|-----------|



E|0-3-0---0--|--0---0----|0-3-0---0--|--0---0----|0-3-0---0--|



e|-----------|-----------|-----------|-----------|-----------|



B|-----------|-----------|-----------|-----------|-----------|



G|-----------|-----------|-----------|-----------|-----------|



D|----2---2--|---2-----0-|----0------|-2---2-----|-2---2---2-|



A|-----------|-----------|--------0--|---0-------|-----------|



E|--0---0----|-0---0-3---|--3---3----|-------3-0-|---0---0---|



e|------------------------------|



B|------------------------------|



G|------------------------------|



D|-//12-12-12-12\\10\\7\\5//7---|



A|------------------------------|



E|------------------------------|



e|------------------------------|



B|------------------------------|



G|------------------------------|



D|-//12-12-12-12\\10\\7//10\\7--|



A|------------------------------|



E|------------------------------|



e|-----------------------------------------|



B|-----------------------------------------|



G|-----------------------------------------|



D|-//12-12-12-12\\10\\7\\5\\2//(4)//////7--|



A|-----------------------------------------|



E|-----------------------------------------|



e|-----------------------------------|



B|-----------------------------------|



G|-//9-9-9\\-------///9-9-9\\\-------|



D|----------7\\5\\2-----------5\\2---|



A|-----------------------------------|



E|-----------------------------------|



e|-----------------------------------|



B|-----------------------------------|



G|-//9-9-9\\-------------------------|



D|----------7\\5\\2--5-5-5\\(4)\\\2--|



A|-----------------------------------|



E|-----------------------------------|



e|------------------|



B|------------------|



G|------------------|



A|------------------|



E|------------------|



e|---------------------------------------------------|



B|---------------------------------------------------|



G|---------------------------------------------------|



D|-////9---//9\\7//9-7//10\\7\\5-5//7---\\(5)////12--|



A|---------------------------------------------------|



E|---------------------------------------------------|



e|---------------------------------------------------|



B|---------------------------------------------------|



G|---------------------------------------------------|



A|---------------------------------------------------|



E|---------------------------------------------------|



Important: The song above is NOT stored on the Chordie server. The original song is hosted at www.guitaretab.com. Chordie works as a search engine and provides on-the-fly formatting. Chordie does not index songs against artists'/composers' will. To remove this song please click here.

This song is displayed as text-only. Transposing and tuning is only available for chordpro-songs.

Login - add to songbook

Rating click stars to rate

Layout
Accuracy

SHARE PAGE  




You need to log in to post comments