eToCache5 = ""; ?> Wild Thing by Troggs - guitar chords, guitar tabs and lyrics - chordie

Wild Thing

Troggs

 troglodytes, i.e. cave dwellers
style, the Troggs  in question would have
to be considered Neanderthals - Cro-Magnons had art.' -- AWR

"Wild Thing"
(Chip Taylor)

Intro:

	-------------
	-------------
	-----9r7-----
	-------------
	-------------
	-------------

^^^ slow reverse bend

 ADE
                                            Verse:
 ADED
        Wild thing        you make my
 ADED
        Heart sing        you make
 ADED
        Everything groovy  
 ADE
        Wild thing       / / /
Break 1:
guitar:
v v v v v
	-----------|-------------------------
	--5--5-----|-5-----------------------
	--5--6-(5)-|-6-----------------------
	--5--7--5--|-7-----------------------
	--5--7--5--|-7-----------------------
	-----------|-------------------------

bass:
v v v v v
	-----------|-2-----------------------
	-----2-----|-------------------------
	-----------|-------------------------
	-----------|-------------------------

Wild thing, I think I love you
 above riff
But I wanna know for sure
 above riff
Come on and hold me tight
 above riff
I love you
 ADEDADEDrepeat verse
[ocarina solo over verse chords - no ocarina tab, but there are only four
notes to it (E, G, A, and B) and you too should be able to play it within
five minutes of picking up an ocarina]
Break 2:
Wild thing, I think you move me
But I wanna know for sure
So c'mon and hold me tight
You move me
 ADEDADEbold 4 bars
        / / / /  / / / /  / / / /    
 repeat verse
Coda:
 ADE
        Wild thing  
 DADE
        C'mon, c'mon, wild thing  
 DAfade
        Shake it, shake it, wild thing   
-- another ace 60's tab from Andrew Rogers


Corrected by dabtoe. View original
A D E
variations - click chord images
Transpose chords:
Tuning:
Cool service:
View: Size:
A  A  A
Rating:
Layout:
  • Currently 3.2/5 Stars.
  • 1
  • 2
  • 3
  • 4
  • 5
 
Accuracy:
  • Currently 3.2/5 Stars.
  • 1
  • 2
  • 3
  • 4
  • 5
 
click stars to rate
Chordie recommends:
Get acoustic guitar lessons and electric guitar lessons at JamPlay.com
Songbook:
Login to add this song to your songbook
Support the artist
Preview/buy this song
MSN Music
Why this non-profit ad?

 
login to add comments/video/corrections