Chordie logo


Abolish Governmentsilent Majority   T.S.O.L.



Artist:TSOL (True Sounds Of Liberty)
Song: Abolish Government/Silent Majority
Tabbed By: J@yM3 D@NG3R
Tuning: STandard ( E A D G B E )

INTRO:
|-----------------------------|
|-----------------------------|
|-99999999--14-14-14-15-15-12-|
|-99999999--14-14-14-15-15-12-|    3 TIMES
|-77777777--12-12-12-13-13-10-|
|-----------------------------|

|----------------------|
|----------------------|
|-99999999-12-12-11----|
|-99999999-12-12-11-X4-|
|-77777777-10-10-9-----|
|----------------------|

1ST VERSE:

ABOLISH GOVERNMENT ITS NOTHING TO ME
    PM
|--------------------|
|--------------------|
|--------------------|
|-22222222-777-8-8-5-|
|-22222222-777-8-8-5-|
|-00000000-555-6-6-3-|

FORGET ABOUT GOD HES NOT HERE TO SEE
    PM
|--------------------|
|--------------------|
|--------------------|
|-22222222-777-8-8-5-|
|-22222222-777-8-8-5-|
|-00000000-555-6-6-3-|

WE LIVE BY A SYSTEM A PERFECT MOLD
    PM
|--------------------|
|--------------------|
|--------------------|
|-22222222-777-8-8-5-|
|-22222222-777-8-8-5-|
|-00000000-555-6-6-3-|

PEOPLE PERFECT PEOPLE WHO ARE POOR AND OLD
    PM
|-------------------|
|-------------------|
|-------------------|
|-22222222-5-5-4444-|
|-22222222-5-5-4444-|
|-00000000-3-3-2222-|

ARE LIVES ARE SPENT ON THE LADDER OF SUCCESS
    PM
|--------------------|
|--------------------|
|--------------------|
|-22222222-777-8-8-5-|
|-22222222-777-8-8-5-|
|-00000000-555-6-6-3-|

LOOKING FOR NOTHING IN THIS, IN THIS WORTHLESS MESS
    PM
|--------------------|
|--------------------|
|--------------------|
|-22222222-777-8-8-5-|
|-22222222-777-8-8-5-|
|-00000000-555-6-6-3-|

PRESIDENTS A NAME PRESIDENTS A LABEL
    PM
|--------------------|
|--------------------|
|--------------------|
|-22222222-777-8-8-5-|
|-22222222-777-8-8-5-|
|-00000000-555-6-6-3-|

HIGHEST MAN ON A GOVERNMENT TABLE
    PM
|-------------------|
|-------------------|
|-------------------|
|-22222222-5-5-4444-|
|-22222222-5-5-4444-|
|-00000000-3-3-2222-|


AMERICA LAND OF THE FREE, FREE TO THE POWER OF THE PEOPLE IN UNIFORM
|---------|
|---------|
|---------|   PLAY THESE NOTES AFTER THE ABOVE LYRICS AND DURING THE NEXT
|-2-------|   VERSE
|-2-------|
|-0-------|

PEOPLE ARE SO BLIND THEY JUST CANT SEE, SEND YOUR SON TO BOOTCAMP SEND HIM OFF TO WAR, 
HE COMES BACK HE'LL BE DEAD AND NOTHING MORE, STRUGGLE FOR A LAND, FOR A COUNTRY, FOR 
ALL YOU MINDLESS PEOPLE WHO NEED SOMETHING TO LEAD THEM!


|----------------------------------|
|----------------------------------|
|----999--12-12-12----999-12-12-12-|
|-77-999--10-10-10-77-999-10-10-10-|
|-77-777-----------77-777----------|
|-55---------------55--------------|

WAKE UP TO THE SAME OLD SHIT
          PM
|--------------|
|--------------|
|----999-------|
|-77-999-10----|
|-77-777-10-X8-|
|-55-----8-----|

LIVE YOUR LIFE TO SUIT THERE FIT
          PM
|--------------|
|--------------|
|----999-------|
|-77-999-10----|
|-77-777-10-X8-|
|-55-----8-----|

SOME PEOPLE THEY DONT LIKE YOUR HAIR
          PM
|--------------|
|--------------|
|----999-------|
|-77-999-10----|
|-77-777-10-X8-|
|-55-----8-----|

POLICEMEN THEY JUSTDONT CARE
          PM
|--------------|
|--------------|
|----999-------|
|-77-999-10----|
|-77-777-10-X8-|
|-55-----8-----|

SNIPERS THAT WANNA BE RIFLE SITES ARE AIMED AT ME... WAKE UP SILENT MAJORITY!
|-------------------------------------------------|
|-------------------------------------------------|
|--------555555-777777----------------------------|
|-555555-555555-777777-999999-777777-999999-10----|
|-555555-333333-555555-999999-777777-999999-10-X8-|
|-333333---------------777777-555555-777777-8-----|

|----------------------------------|
|----------------------------------|
|----999--12-12-12----999-12-12-12-|
|-77-999--10-10-10-77-999-10-10-10-|
|-77-777-----------77-777----------|
|-55---------------55--------------|

THE GOVERNMENT THEYDONT WANT US HERE
          PM
|--------------|
|--------------|
|----999-------|
|-77-999-10----|
|-77-777-10-X8-|
|-55-----8-----|

YOU FUCKS CANT FEEL THEIR FEAR
          PM
|--------------|
|--------------|
|----999-------|
|-77-999-10----|
|-77-777-10-X8-|
|-55-----8-----|

WE CAN WALK THE STREETS TODAY
          PM
|--------------|
|--------------|
|----999-------|
|-77-999-10----|
|-77-777-10-X8-|
|-55-----8-----|

YOU CAN WALK IN YOUR OWN WAY
          PM
|--------------|
|--------------|
|----999-------|
|-77-999-10----|
|-77-777-10-X8-|
|-55-----8-----|

PEOPLE THINK THAT IM CRAZY THESE PEOPLE JUST CANT SEE... WAKE UP SILENT MAJORITY!!!
|-------------------------------------------------|
|-------------------------------------------------|
|--------555555-777777----------------------------|
|-555555-555555-777777-999999-777777-999999-10----|
|-555555-333333-555555-999999-777777-999999-10-X8-|
|-333333---------------777777-555555-777777-8-----|

|---------------------------------------------------------------------|
|---------------------------------------------------------------------|
|----999----9-12-9-------999----9-12----999----9-12-9-------999-------|
|-77-999-10--------10-77-999-10------77-999-10--------10-77-999-10----|
|-77-777--------------77-777---------77-777--------------77-777-10-X8-|
|-55------------------55-------------55------------------55-----8-----|

LIVE YOUR LIFE DAY BY DAY DOING EVERYTHING THAT THEY SAY.. SILENT MAJORITY! WHEN YOU 
WAKE UP?
|-------------------------------------------------|
|-------------------------------------------------|
|--------555555-777777----------------------------|
|-555555-555555-777777-999999-777777-999999-10----|
|-555555-333333-555555-999999-777777-999999-10-X8-|
|-333333---------------777777-555555-777777-8-----|

PROMOTE FREEDOM NEVR BE HEARD DONT FOR GET THAT ITS ONLY A WORD... SILENT MAJORITY! WHEN 
GONNA WAKE UP?
|-------------------------------------------------|
|-------------------------------------------------|
|--------555555-777777----------------------------|
|-555555-555555-777777-999999-777777-999999-10----|
|-555555-333333-555555-999999-777777-999999-10-X8-|
|-333333---------------777777-555555-777777-8-----|

|--------------------------------------------------|
|--------------------------------------------------|
|----999-12-X8----999-14-X8----999-17-X8----999----|
|-77-999-10----77-999-12----77-999-15----77-999-10-|
|-77-777-------77-777-------77-777-------77-777-10-|


Important: The song above is NOT stored on the Chordie server. The original song is hosted at www.guitaretab.com. Chordie works as a search engine and provides on-the-fly formatting. Chordie does not index songs against artists/composers will. To remove this song please click here.

This song is displayed as text-only. Transposing and tuning is only available for chordpro-songs.

Login - add to songbook

Rating click stars to rate

Layout
Accuracy

SHARE PAGE  




You need to log in to post comments