Chordie logo

Brendas Got A Baby   Tupac Shakur



Title: Brenda's Got A Baby
Artist: 2Pac

Hey it's Matt Minto with yet another Tupac Shakur Tab!

Intro
e----------------------|
B-----3----------------|
G--0-----5--0--3-------|
D-------------------3--|
A----------------------|
E----------------------|

Verse
e--------------------------  -----------------------------|
B--3-----------3-----------  --3------------3-------------|
G-----2--3--------2--3-----  -----2--3--------2--3--5-----|
D-----------5-----------5--  -----------5-----------------|
A--------------------------  -----------------------------|
E--------------------------  -----------------------------|
 "Brenda's got a Baby..."


e--------------------  -----------------|
B--------------------  -----------------|
G--0--3--0--5--0-----  --0--3--0--5--0--|
D-----------------3--  -----------------|
A--------------------  -----------------|
E--------------------  -----------------|
 "I hear Brenda's got a baby..."


e----------------------------  ----------------------------|
B----------------------------  ----------------------------|
G--3--2-----3--2-------3--2--  --3--2-----3--2-------3--5--|
D--------3--------3----------  --------3--------3----------|
A----------------------------  ----------------------------|
E----------------------------  ----------------------------|
 "Now Brendas belly is gettin bigger..."


e----------------------------|
B—-------------------------|
G—-2--3--2--3--0----5--3---|
D----------------------------|
A----------------------------|
E----------------------------|
 "And yet she thinks that he'll be with her forever..."


Thanks,


Important: The song above is NOT stored on the Chordie server. The original song is hosted at www.guitaretab.com. Chordie works as a search engine and provides on-the-fly formatting. Chordie does not index songs against artists/composers will. To remove this song please click here.

This song is displayed as text-only. Transposing and tuning is only available for chordpro-songs.

Login - add to songbook

Rating click stars to rate

Layout
Accuracy

SHARE PAGE  

You need to log in to post comments