Self Help

Turin Brakes

--------------------------------------------------------------------------

--------------------------------------------------------------------------

 BF#mDAB
e|--------------------0---------000---55555-5555-/-777777777-
B|--0000000000--------0---------000---77777-5555-/-777777777-
G|--4444444444--------2---------222---77777-6666-/-888888888-
D|--4444444444--------4---------444---77777-7777-/-999999999-
A|--2222222222--------4---------444---55555-7777-/-999999999-
E|--------------2--2--2---0h2-2-------xxxxx-5555-/-777777777-


This main riff/chord progression is played during the verses.

Intro:

B F#m D A B x2

Verse 1:

 B
 Breathe in good, breathe out bad,

 F#mDAB
 Remind yourself of the things you have, it's easy.

 B
 Pull a smile onto your face,

 F#mDAB
 Understand that making friends is easy.

 B
 So tell yourself it will be ok,

 F#mDAB
 Remind yourself that you're not just in it for the money.

Chorus:

 BA
 The end, the end, the end, the end,

 F#mBAB
 My friend, where's the end? 

 B
 You're up, you're down,

 AF#m
You're in the ground in the end, my friend,

 BABF#mDAB
Where's the end?                 

Verse 2:

 BF#m
 I've found myself, deep down in the dirt,

 DAB
 Got to get myself to my feet yeah.

 B
 So tell yourself it will be ok,

 F#mDAB
 Remind yourself that you're not just in it for the money.

Chorus:

 BA
 The end, the end, the end, the end,

 F#mBAB
 My friend, where's the end? 

 BA
 The end, the end, the end, the end,

 F#mBAB
 My friend, where's the end? 

From here olly and gale start singing “ohhhh” and “nananaa” during another verse,
chorus and last verse. They have the same chords as the verse and chorus from above.

--------------------------------------------------------------------

27/04/03 good song, the other songs are comming a.s.a.p :) please feel free
to contact me for corrections or questions: timlawson100@hotmail.com


A B D F#m
variations - click chord images
Transpose chords:
Tuning:
Cool service:
View: Size:
A  A  A
Rating:
Layout:
  • Currently 3.3/5 Stars.
  • 1
  • 2
  • 3
  • 4
  • 5
 
Accuracy:
  • Currently 2.4/5 Stars.
  • 1
  • 2
  • 3
  • 4
  • 5
 
click stars to rate
Chordie recommends:
Get acoustic guitar lessons and electric guitar lessons at JamPlay.com
Songbook:
Login to add this song to your songbook
Support the artist
Preview/buy this song
MSN Music
Why this non-profit ad?

 
login to add comments/video/corrections