Guitar Tabs, Chords and Lyrics


Rain City  Turin Brakes

--------------------------------------------------------



--------------------------------------------------------

   [C]        [A#]         [F]      [Am]         [G]      [E]        [D]                          
e|----------x-------1--------------3--------------2-----|
B|--1-------3-------1------1-------3--------------3-----|
G|----------3-------2------2--------------1-------2-----|
D|--2-------3-------3------2--------------2-------------|
A|--3-------1-------3--------------2------2-------x-----|
E|----------1-------1------x-------3--------------x-----|

Intro
[C]   [A#]    [F]                              
[C]Opened my eyes had a [A#]dream last night that [F]both my arms were b[C]roken,
[C]Eeeeee[A#]eeeeee[F]eeevenin'[C] time,
[C]Help me now or h[A#]old me down, i fe[F]el my world is [C]tumblin',
[C]Spiiiiiiiii[A#]iiiiiiiiiiiiiiiii[F]iiiiiiiiral[C] down,


[F]Oh my love i can`t let [Am]go,
[F]Somethings wrong i can`t [Am]let go,
[F]Natures cruel she [Am]laughs at [G]me,
[C]As i make my way through the centu[A#]ry,
As i s[F]lowly turn to h[C]ouse dust,
[C]Tummmmm[A#]mmmmmmmm[F]mmblin' [C]down,
[C]The rain comes down like [A#]a victory,
In s[F]heets of shinin' m[C]emory,
[C]Over and o[A#]ver,
[F]Circlin' a[C]round,
[F]Over and over, I can`t let [Am]go,
[F]Somethings wrong i can`t let [Am]go,
[F]Natures cruel she[Am] laughs at[G] me,
[E]Almost too much for my h[G]eart,
When it [D]rains,
[E]Oh tears my soul a[G]part,
When it [D]rains it rains so s[C]lowwwly[F],
In t[C]he city where i'm[A#] from,         [C]
.....::::::I LOVE DEAHNA:::::......

Important: The song above is NOT stored on the Chordie server. The original song is hosted at www.guitaretab.com. Chordie works as a search engine and provides on-the-fly formatting. Chordie does not index songs against artists'/composers' will. To remove this song please click here.

Text color:
Chord color:
Chord grids: 
Font size:    
Page size: 

A# Am C D E F G
variations - click chord images

Login - add to songbook

Transpose chords

Tuning

Rating click stars to rate

Layout
Accuracy

SHARE PAGE  




You need to log in to post comments