Guitar Tabs, Chords and Lyrics


At The Rising Of The Sun   Twin Obscenity



p: pull off
h: hammer on
/: slide
~: trill

Riff 1
|---------------------------|
|---------------------------|
|---------------------------|
|---555-5-555-7-777-7-------|
|---777-7-777-9-999-9-10-9--|
|-0-------------------------|

|----------------------------------|
|----------------------------------|
|----------------------------------|
|---999-9-999-10-10-10-10-10-------|
|---777-7-777-12-12-12-12-12-10-10-|
|-0--------------------------------|

Riff 2
|-------------------------------------|
|-------------------------------------|
|-------------------------------------|
|-9-999-9-1010-9-999-77-9-999-9-10-10-|
|-7-777-7-8--8-7-777-55-7-777-7-8--8--|
|-------------------------------------|

(continued)
|---------------------------|
|---------------------------|
|---------------------------|
|-13-13-13-13-13-12-12------|
|-11-11-11-11-11-10-10------|
|---------------------------|

Repeat riff 1 with this solo
|-----------------------------------|
|-----------------------------------|
|-------2-542-0-4-2-0----2-0--------|
|-2-545---------------4~------4-2---|
|-----------------------------------|
|-----------------------------------|
play this twice and on last note start riff 2 again.

Repeat riff 1
Repeat riff 2

Riff 3, tremolo picked
|---------------------------|
|---------------------------|
|---------------------------|
|---9-7-9-10------7---------|
|-7----------10-9---9-10-7--|
|---------------------------|

(continued)
|---------------------------|
|---------------------------|
|------------9------7-------|
|---9-7-9-10---10-9---9-10--|
|-7-------------------------|
|---------------------------|

Then there's a solo but I can't do solo's. Sorry!

Repeat riff 2

Riff 4
|---------------------------|
|---------------------------|
|---------------------------|
|-let ring------------------|
|-2-------------------------|
|-0-------------------------|

Riff 5, acoustic bit played over riff 6.
|---------------------------------|
|---------------------------------|
|-----4-2h4p2-0-------0-------0---|
|----2----------4---4---4---4---4-|
|---2-------------0---------------|
|-0-----------------------3-------|

Riff 6
|---------------------------|
|---------------------------|
|---------------------------|
|--------7-7-9-10-----------|
|---9-10--------------------|
|-0-------------------------|

(continued)
|---------------------------|
|---------------------------|
|---------------------------|
|---------------------------|
|---9-10-9-5-5/9-9-10-7-----|
|-0-------------------------|

Riff 7 tremolo picked
|--------------------------------|
|--------------------------------|
|--------------------------------|
|------------9-7-----------------|
|---7-10-9-------10---7-10-9-----|
|-0--------8--------0--------8-5-|

repeat riff 5+6
repeat riff 7

last: 
riff 5 and at the very end riff 6 clean.


Important: The song above is NOT stored on the Chordie server. The original song is hosted at www.guitaretab.com. Chordie works as a search engine and provides on-the-fly formatting. Chordie does not index songs against artists'/composers' will. To remove this song please click here.

This song is displayed as text-only. Transposing and tuning is only available for chordpro-songs.

Login - add to songbook

Rating click stars to rate

Layout
Accuracy

SHARE PAGE  




You need to log in to post comments