Chordie logo


What You Need  Kyte Tyler

e|------0----------0------0----------0--------0----------0------0----------0--|


B|------0----------0------0----------0--------0----------0------0----------0--|


G|--8-8-8--8-8-8-8-8--8-8-8--8-8-8-8-8----8-8-8--8-8-8-8-8--8-8-8--8-8-8-8-8--|

D|--9-9-9--9-9-9-9-9--9-9-9--9-9-9-9-9----9-9-9--9-9-9-9-9--9-9-9--9-9-9-9-9--|
A|--9-9-9--9-9-9-9-9--9-9-9--9-9-9-9-9----9-9-9--9-9-9-9-9--9-9-9--9-9-9-9-9--|
E|--7-7-7--7-7-7-7-7--7-7-7--7-7-7-7-7----0-0-0--0-0-0-0-0--0-0-0--0-0-0-0-0--|
e|--4-4-4-4-4-4-4-4-4-4-4--4-5-5-5-5-5-5-5--|
B|--5-5-5-5-5-5-5-5-5-5-5--5-5-5-5-5-5-5-5--|
G|--6-6-6-6-6-6-6-6-6-6-6--6-6-6-6-6-6-6-6--|
D|--6-6-6-6-6-6-6-6-6-6-6--6-7-7-7-7-7-7-7--|
A|--4-4-4-4-4-4-4-4-4-4-4--4-7-7-7-7-7-7-7--|
E|-------------------------4-5-5-5-5-5-5-5--|
e|--4-4-4-4-4-4-4-4--4--2-2-2-2--5-5-5-5----|
B|--5-5-5-5-5-5-5-5--5--2-2-2-2--5-5-5-5----|
G|--6-6-6-6-6-6-6-6--6--2-2-2-2--6-6-6-6----|
D|--6-6-6-6-6-6-6-6--6--4-4-4-4--7-7-7-7----|
A|--4-4-4-4-4-4-4-4--4--4-4-4-4--7-7-7-7----|
E|-------------------4--2-2-2-2--5-5-5-5----|
[B]And all I need is a d[E]ay inside
In-[C#m]side your mind to see wh[A]at it's like
[B]And all I'm missing in [E]you I see
Am I [C#m]who you want? Am I [A]what you need?
e|------0----------0------0----------0-----------0----------0------0----------0--|
B|------0----------0------0----------0-----------0----------0------0----------0--|
G|--8-8-8--8-8-8-8-8--8-8-8--8-8-8-8-8-------8-8-8--8-8-8-8-8--8-8-8--8-8-8-8-8--|
D|--9-9-9--9-9-9-9-9--9-9-9--9-9-9-9-9-------9-9-9--9-9-9-9-9--9-9-9--9-9-9-9-9--|
A|--9-9-9--9-9-9-9-9--9-9-9--9-9-9-9-9-------9-9-9--9-9-9-9-9--9-9-9--9-9-9-9-9--|
E|--7-7-7--7-7-7-7-7--7-7-7--7-7-7-7-7-------0-0-0--0-0-0-0-0--0-0-0--0-0-0-0-0--|

Why do you see? Why do you see someone else
Cause I'm losing sleep. I feel like time is running out

e|--4-4-4-4-4-4-4-4-4-4-4--4-5-5-5-5-5-5-5--|
B|--5-5-5-5-5-5-5-5-5-5-5--5-5-5-5-5-5-5-5--|
G|--6-6-6-6-6-6-6-6-6-6-6--6-6-6-6-6-6-6-6--|
D|--6-6-6-6-6-6-6-6-6-6-6--6-7-7-7-7-7-7-7--|
A|--4-4-4-4-4-4-4-4-4-4-4--4-7-7-7-7-7-7-7--|
E|-------------------------4-5-5-5-5-5-5-5--|

If you had called an hour ago

e|--4-4-4-4-4-4-4-4--4--2-2-2-2--5-5-5-5----|
B|--5-5-5-5-5-5-5-5--5--2-2-2-2--5-5-5-5----|
G|--6-6-6-6-6-6-6-6--6--2-2-2-2--6-6-6-6----|
D|--6-6-6-6-6-6-6-6--6--4-4-4-4--7-7-7-7----|
A|--4-4-4-4-4-4-4-4--4--4-4-4-4--7-7-7-7----|
E|-------------------4--2-2-2-2--5-5-5-5----|

This basement might not be so cold


[B]And all I need is a d[E]ay inside
In-[C#m]side your mind to see w[A]hat it's like
[B]And all I'm missing in [E]you I see
Am I [C#m]who you want? Am I [A]what you need?
e|--0-0-0-0-0-0-0--------5--5-5-5----0-0-0-0-0-0-0--------5--5-5-5--|
B|--0-0-0-0-0-0-0--------5--5-5-5----0-0-0-0-0-0-0--------5--5-5-5--|
G|--1-1-1-1-1-1-1--4-4-4-6--6-6-6----1-1-1-1-1-1-1--4-4-4-6--6-6-6--|
D|--2-2-2-2-2-2-2--4-4-4-7--7-7-7----2-2-2-2-2-2-2--4-4-4-7--7-7-7--|
A|--2-2-2-2-2-2-2--2-2-2-7--7-7-7----2-2-2-2-2-2-2--2-2-2-7--7-7-7--|
E|--0-0-0-0-0-0-0--------5--5-5-5----0-0-0-0-0-0-0--------5--5-5-5--|

Whooooooooooa ooooo oooo Whooooooooooa ooooo oooo

e|--4-4-4-4-4-4-4-4-4-4-4--4-5-5-5-5-5-5-5--4-4-4-4-4-4-4-4-4-4-4--4-5-5-5-5-5-5-5-|
B|--5-5-5-5-5-5-5-5-5-5-5--5-5-5-5-5-5-5-5--5-5-5-5-5-5-5-5-5-5-5--5-5-5-5-5-5-5-5-|
G|--6-6-6-6-6-6-6-6-6-6-6--6-6-6-6-6-6-6-6--6-6-6-6-6-6-6-6-6-6-6--6-6-6-6-6-6-6-6-|
D|--6-6-6-6-6-6-6-6-6-6-6--6-7-7-7-7-7-7-7--6-6-6-6-6-6-6-6-6-6-6--6-7-7-7-7-7-7-7-|
A|--4-4-4-4-4-4-4-4-4-4-4--4-7-7-7-7-7-7-7--4-4-4-4-4-4-4-4-4-4-4--4-7-7-7-7-7-7-7-|
E|-------------------------4-5-5-5-5-5-5-5-------------------------4-5-5-5-5-5-5-5-|

Whooooooooooooooooooooa oooooooooo Whooooooooooooooooooooa oooooo


e|------0----------0------0----------0--------0----------0--0--|
B|------0----------0------0----------0--------0----------0--0--|
G|--8-8-8--8-8-8-8-8--8-8-8--8-8-8-8-8----8-8-8--8-8-8-8-8--8--|
D|--9-9-9--9-9-9-9-9--9-9-9--9-9-9-9-9----9-9-9--9-9-9-9-9--9--|
A|--9-9-9--9-9-9-9-9--9-9-9--9-9-9-9-9----9-9-9--9-9-9-9-9--9--|
E|--7-7-7--7-7-7-7-7--7-7-7--7-7-7-7-7----0-0-0--0-0-0-0-0--0--|

And why do I need? Why do I need someone else?

[B]And all I need is a d[E]ay inside
In-[C#m]side your mind to see wh[A]at it's like
[B]And all I'm missing in [E]you I see
Am I [C#m]who you want? Am I [A]what you need?

Am I [C#m]who you want? Am I [A]what you need?
Am I [C#m]who you want? Am I [A]what you need?  [B]

Important: The song above is NOT stored on the Chordie server. The original song is hosted at www.guitaretab.com. Chordie works as a search engine and provides on-the-fly formatting. Chordie does not index songs against artists/composers will. To remove this song please click here.

Text color:
Chord color:
Chord grids: 
Font size:    
Page size: 

A B C#m E
variations - click chord images

Login - add to songbook

Transpose chords

Tuning

Rating click stars to rate

Layout
Accuracy

SHARE PAGE  




You need to log in to post comments