Guitar Tabs, Chords and Lyrics


Xero Tolerance   Type O Negative



Xero Tolerance - By Type O Negative
tabbed by rogue
please send corrections to: rogue13@ix.netcom.com
about 132 bpm (my timing may be alittle off)

Intro
T:1---2---3---4---1---2---3---4---1---2---3---4---1---2---3---4---|
e|----------------------------------------------------------------|
B|----------------------------------------------------------------|
G|6---------------6---------------6---------------6---7-------7---|
D|6---6---5-------6---6---5-------6---6---5-------6---7-------7---|
A|4---6---5-------4---6---5-------4---6---5-------4---5-------5---|
E|----4---3-----------4---3-----------4---3-----------------------|
"I'll kill you tonight..."

PartA
T:1---2---3---4---1---2---3---4---|
e|--------------------------------|
B|--------------------------------|
G|----77------99------77--99--74--|
D|55--77--55--99--55--77--99--74--|
A|55--55--55--77--55--55--77--52--|
E|33------33------33--------------|
"Hatered! Posessing me..."

PartB
T:1---2---3---4---1---2---3---4---|
e|--------------------------------|
B|--------------------------------|
G|5-4-2---4-2-----5-4-2---4-2-----|
D|5-4-2---4-2-5---5-4-2---4-2-5-4-|
A|3-2-0---2-0-5---3-2-0---2-0-5-4-|
E|------------3---------------3-2-|
"Into someone I don't know..."

Organ (quarter tempo?)                     (think theres an E around the end)
T:1---2---3---4---1---2---3---4---1---2---3---4---1---2---3---4---|
e|----------------------------------------------------------------|
B|----------------------------------------------------------------|
G|4-------2---4---5---2---4-------------------2---4---------------|
D|4---5---2---4---5---2---4---5---6---2---5---2---4---------------|
A|2---5---0---2---3---0---2---5---6---2---5---0---2---------------|
E|----3-----------------------3---4---0---3-----------------------|
"And now, you die..."

Verse
T:1---2---3---4---1---2---3---4---1---2---3---4---1---2---3---4---|
e:----------------------------------------------------------------|
B:----------------------------------------------------------------|
G:----7-------7-------7-------767-----7-------7-----------77777777|
D:7---7---78757---7---7---7876767-7---7---78767---7777777777777777|
A:7---5---78755---7---5---7876545-7---5---78765---7777777755555555|
E:5-------5654----5-------5654----5-------5654----55555555--------|
"I got a pick axe..."

Chorus
T:1---2---3---4---|
e|----------------|
B|----------------|
G|----------------|
D|3-335-3-33335-3-|
A|3-335-3-33335-3-|
E|1-113-1-11113-1-|
"Kill you...Punishment..."

[Grinding wheel]
Intro  x5
PartA  x8 [play solo over 4th time]
PartB  x2
PartA  x3
PartB  x2
Intro  x6
[Pause for organ]
Organ  x2
Verse  x5
Chorus x8
Verse  x3
Chorus x8
Intro  x6


Important: The song above is NOT stored on the Chordie server. The original song is hosted at www.guitaretab.com. Chordie works as a search engine and provides on-the-fly formatting. Chordie does not index songs against artists/composers will. To remove this song please click here.

This song is displayed as text-only. Transposing and tuning is only available for chordpro-songs.

Login - add to songbook

Rating click stars to rate

Layout
Accuracy

SHARE PAGE  




You need to log in to post comments