Guitar Tabs, Chords and Lyrics


Another Minute Until Ten   Typecast



another minute until ten-typecast

drop D

intro:

|-------5-------------5---------------------|
|---8------8------7h8---8-7-----------------|
|-----7------7--7---------------------------|
|-------------------------------------------|   2x to..
|-7-----------------------------------------|
|-------------------------------------------|

then

|-------5-------------5---------------------|
|---8------8------7h8---8-7-----------------|
|-----7------7--7---------------------------|   2x din to..
|-7-----------------------------------------|
|-------------------------------------------|
|-------------------------------------------|

guitar 2:

|-10------10------12-------10-------|
|----12------12------12-------12----|
|-------11------12------12-------11-|
|-----------------------------------|
|-----------------------------------|
|-----------------------------------|

repeat all

2nd part ng intro:

|------------------------------------------------------------|
|----------3-3-----------------------------------------------|
|----------------4-4-----0-0-----2---------4-----------------|
|-5-4-2--2-----2-----0h2-------0-------5-5---5-4-4/5-5-5-5---|
|-5-4-2--2-------------------2-----2-2-----------------------|
|-5-4-2--2---------------------------------------------------|

then:

|-------2-2------|                           
|-------3-3------|   

Important: The song above is NOT stored on the Chordie server. The original song is hosted at www.guitaretab.com. Chordie works as a search engine and provides on-the-fly formatting. Chordie does not index songs against artists'/composers' will. To remove this song please click here.

This song is displayed as text-only. Transposing and tuning is only available for chordpro-songs.

Login - add to songbook

Rating click stars to rate

Layout
Accuracy

SHARE PAGE  




You need to log in to post comments