Guitar Tabs, Chords and Lyrics


Another Minute Til  Typecast

e|----------------10-------------|----------------12--------------|


B|---8---10--8--------7h8-10-8---|---8---10--8--------7h8-10-8----|


G|-----7--------7--------------7-|-----7--------7--------------7--|

D|-------------------------------|--------------------------------|
A|-------------------------------|-0------------------------------|
E|-0-----------------------------|--------------------------------|
e|-----------------10--------------|
B|----8---10--8--------7h8-10-8----|
G|------7--------7--------------7--|
D|---------------------------------|
A|-0-------------------------------|
E|---------------------------------|
e|--10-------10-------12-------10-------10-------12----------|
B|-----12-------12-------12-------12-------12-------12-------|
G|--------11-------12-------12-------11-------12-------12----|
D|-----------------------------------------------------------|
A|-----------------------------------------------------------|
E|-----------------------------------------------------------|
e|-----------------10-----|
B|----8---10--8-----------|
G|------7--------7--------|
D|------------------------|
A|-0----------------------|
E|------------------------|
    [Em]      [C]     [Em]      [Am]         [Bm]             [C]                                                        
e|-000|-0-0-0|-000|-0-0-0|-2-2-2-2-2-2|-0-0-0-0-0-0-|
B|-000|-1-1-1|-000|-1-1-1|-3-3-3-3-3-3|-1-1-1-1-1-1-|
G|-000|-0-0-0|-000|-2-2-2|-4-4-4-4-4-4|-0-0-0-0-0-0-|
D|-222|-2-2-2|-222|-2-2-2|-4-4-4-4-4-4|-2-2-2-2-2-2-|
A|-222|-3-3-3|-222|-0-0-0|-2-2-2-2-2-2|-3-3-3-3-3-3-|
E|-000|-x-x-x|-000|-x-x-x|-x-x-x-x-x-x|-x-x-x-x-x-x-|

Pangalawang gitara:
e|-------------------------------------------------------|
B|---------3----0-0----------------------0---------------|
G|-------0----0---------0------2-----0-----0---0-0-0-0-0-|
D|------------------2/4------4-----4---4-----4-----------|
A|-------------------------2-----2-----------------------|
E|-3-2-0-------------------------------------------------|


Ulitin ang pangalawang parte

Pangatlong Parte:

Unang Gitara: Em8 ang chord na ginamit, * ay harmonic
Repeat this riff until fade out
e|-----------22----22----2-----22----22------5*--|
B|-----------33----33----3-----33----33----------|
G|-----------00----00----0-----00-----00---------|
D|--------22--2-22--2-22----22--2-22--2-22-------|
A|--------22----22----22----22----22----22-------|
E|--3-2-0-00----00----00----00----00----00-------|


Pangalawang Gitara
E|-2h3~---2h3---2h3------------------------------|
B|------------3-----3~------3-3-----3-3-----3----|
G|------------------------0-------0-------0------|
D|----------------------2-------2-------2--------|
A|-----------------------------------------------|
E|-----------------------------------------------|


Verse: Ito chords na para madali

[C]  The sun is [Am]shining down on [Em]you
it's time to show the [C]truth
it's [Am]time to show your [Em]true face now
[C]  you're walking [Am]with content
dis[Em]order, you're colder
[C]  you know that [Am]i can see through [Em]you
Am C Em8
try, try me
[Am]try, [C]try me


Ulitin ang pangalawa at pangatlong parte

[C]  unexpectable [Am]drop-by's
my [Em]body's pressed against the wall
[C]  it's cracking [Am]up my skin a[Em]gain
[C]  obviously you're [Am]happy
the [Em]sun is shining down on you
you [C]know it al[Am]l just give me [Em]one reason to live

Am C Em8
try, try me
[Am]try, [C]try me


Ulitin ang Unang parte ng apat na beses

Sa pangatlo at pang-apat na beses, ito ang mga chords na ginamit sa pangalawang gitara
nagpu-plucking ang unang gitara.

C-Am (x2) C-D

Ulitin ang pangalawang parte

At dito magtatapos ang kanta. Kung may tanong at reklamo sa tab ko, problema nyo na yun
napakadali ng tugtugin ito sa Standard EADGBe. Yung ibang versions nito ay naka Drop D,
lang ang sarili nila e obvious na mas madali itong tugtugin sa Standard e. e-mail nyo lang ako.

Important: The song above is NOT stored on the Chordie server. The original song is hosted at www.guitaretab.com. Chordie works as a search engine and provides on-the-fly formatting. Chordie does not index songs against artists'/composers' will. To remove this song please click here.

Text color:
Chord color:
Chord grids: 
Font size:    
Page size: 

Am Bm C Em
variations - click chord images

Login - add to songbook

Transpose chords

Tuning

Rating click stars to rate

Layout
Accuracy

SHARE PAGE  




You need to log in to post comments