Guitar Tabs, Chords and Lyrics


Will You Ever Learn  Typecast

e|-2--2-------------|


B|-3--2---3---3-----|


G|-2--2---2---2---7-|

D|-0--0---2---0---7-|
A|-0--0---0---2---5-|
D|-0--0-----------5-|
e|-------12----------12----------12----12/14\12-9/10-|
B|-10-10----10-10-10----10-10-10----10---------------|
G|---------------------------------------------------|
D|---------------------------------------------------| x3
A|---------------------------------------------------|
D|---------------------------------------------------|
e|-------12----------12----------12-------|
B|-10-10----10-10-10----10-10-10----10-10-|
G|----------------------------------------|
D|----------------------------------------|
A|----------------------------------------|
D|----------------------------------------|
e|------------------------------|
B|------------------------------|
G|-----------------------7(x16)-|
A|-0(x16)-7(x16)--9(x16)-5(x16)-|
D|-0(x16)-7(x16)--9(x16)-5(x16)-|
e|------------------------------|
B|------------------------------|
D|-7(x16)-x(x16)--x(x16)-5(x16)-|
A|-5(x16)-7(x16)--9(x16)-5(x16)-|
D|-0(x16)-----------------------|
e|-------------------------|-------------------------|
B|-------------------------|-------------------------|
G|-----6-------6-----------|-----7-------7-----------|
D|---7---7---7---7---7---7-|---7---7---7---7---7---7-| then Repeat 1st bar
A|-------------------------|-------------------------|
D|-4-------4-------4---4---|-5-------5-------5---5---|
e|--------|
B|--------|
e|----------------------------------|
B|----------------------------------|
G|----------------7(x8)-6(x4)-8(x4)-|
D|-4~---5~---4~---x(x8)-x(x4)-x(x4)-|
A|-4~---5~---4~---5(x8)-4(x4)-5(x4)-|
D|-4~---5~---4~---------------------|
e|---------------------------|
B|---------------------------|
G|--------------------7(x8)--|
D|-0(x8)-7(x8)-12(x8)-7(x8)--| (x2)
A|-0(x8)-7(x8)--9(x8)-5(x8)--|
D|-0(x8)-7(x8)--9(x8)-5(x8)--|
e|--------------------------|
B|--------------------------|
D|-7(x8)-x(x8)--x(x8)-5(x8)-| (x2)
A|-5(x8)-7(x8)--9(x8)-5(x8)-|
D|-0(x8)--------------------|
e|---------|
B|---------|
G|---------|
e|----5--0-------------------------5--0-----------------|
B|-3---------3p2h3p2------------3---------3p2h3p2h3h5-5-|
G|-------------------2h4--------------------------------|
D|-----------------------2--4---------------------------|
A|------------------------------------------------------|
D|------------------------------------------------------|
e|---------|
B|---------|
G|---------|
e|--------------------------------------------------------------|
B|--------------------------------------------------------------|
G|--------------------------------------------------------------|
D|-0-0-0-0-0-0-0-0-0-0---------7--0-0-0-0-0-0-0-0-0-0-----------| x3
A|-0-0-0-0-0-0-0-0-0-0-4h5p4h5----0-0-0-0-0-0-0-0-0-0-5-4-2h4p2-|
D|-0-0-0-0-0-0-0-0-0-0------------0-0-0-0-0-0-0-0-0-0-----------|
e|-----------------------------------------------------|
B|--------------------------------------------------7*-|
G|--------------------------------------------------7*-|
D|-0-0-0-0-0-0-0-0-0-0---------7--0-0-0-0-0-0-0-0---7*-|
A|-0-0-0-0-0-0-0-0-0-0-4h5p4h5----0-0-0-0-0-0-0-0------|
D|-0-0-0-0-0-0-0-0-0-0------------0-0-0-0-0-0-0-0------|
e|--------------------------------------------------------------|
B|--------------------------------------------------------------|
G|-----------------------------7--------------------------------|
D|---------------------4h5p4h5------------------------5-4-2h4p2-| x5
A|---5-4---2-0---4-5----------------5-4---2-0---4-5---5-4-2h4p2-|
D|-0-----0-----0-----0------------0-----0-----0-----0-5-4-2h4p2-|
e|----------------------------------------------------------|
B|----------------------------------------------------------|
G|-----------------------------7----------------------------|
D|---------------------4h5p4h5------------------5-4-2-4-5-4-|
A|---5-4---2-0---4-5----------------5-4---2-0---5-4-2-4-5-4-|
D|-0-----0-----0-----0------------0-----0-------5-4-2-4-5-4-|
So [D]what’s the point in all of this? When [DM7]you will never change
The [Asus4]days have past  The weather’s changed
Should I be [Bm7]sorry? Could I be [G9]sorry?
Verse 2:
I [D5]did it all for you Hoping you would see
Your [A5]eyes are dull, your hands are clenched
Are we [Bm]ready? Are we [G9]ready


Refrain:
But [F#5]you think a[G9]bout yourself
Only [F#5]but yourself But what about[G9]…


Chorus 1:
Un-[D5]lonely nights, ro[A5]mantic moments
The [Bm]love The Love, [G9]What about them
[D5]Throw it [A5]all a[Bm]way[G9]


Post Chorus: D


Verse 3:
You [D5]know me well You know it’s wrong Then what is it you feel?
You [A5]hide behind those perfect smiles
It won’t [Bm]fool me because you already [G9]did

(Repeat Verse 2)

(Repeat Refrain and Chorus 1)


Chorus 2:
The [D5]perfect dates, the [A5]sweetest kisses
The [Bm]love The love, [G9]What about them
[D5]Throw it [A5]all a[Bm]way[G9]


Interlude: D5 (x6)

Outro: Repeat Verse 1:

Important: The song above is NOT stored on the Chordie server. The original song is hosted at www.guitaretab.com. Chordie works as a search engine and provides on-the-fly formatting. Chordie does not index songs against artists/composers will. To remove this song please click here.

Text color:
Chord color:
Chord grids: 
Font size:    
Page size: 

A5 Asus4 Bm Bm7 D D5 Dm7 F#5 G9
variations - click chord images

Login - add to songbook

Transpose chords

Tuning

Rating click stars to rate

Layout
Accuracy

SHARE PAGE  




You need to log in to post comments