Guitar Tabs, Chords and Lyrics


40   U2


-----------------------------------------------------------------------------











-----------------------------------------------------------------------------





   ]  ]    ]  ]    ]   ]     ]      ]   ]   ]                                                


e|-------------7-12---------------12--|-------------------------------------|
B|-------------------|-7--|--7-12-------------------------------------------|
G|---------7-|--------------------------------------------------------------|
D|---7-|-7------------------------------11\9-7~-|-7/9-----------------------|
A|-7--------------------------------------------------7~--------------------|
E|--------------------------------------------------------------------------|



Important: The song above is NOT stored on the Chordie server. The original song is hosted at www.guitaretab.com. Chordie works as a search engine and provides on-the-fly formatting. Chordie does not index songs against artists'/composers' will. To remove this song please click here.

This song is displayed as text-only. Transposing and tuning is only available for chordpro-songs.

Login - add to songbook

Rating click stars to rate

Layout
Accuracy

Jango Player

SHARE PAGE  




You need to log in to post comments