"yes"; ?> by Unknown - guitar chords, guitar tabs and lyrics - chordie
1------------------------------------|

2------------------------------------|
3----------9-------------------------|
4---9h11-------11---9-------9----11--|
5-----------------------11-----------|
6------------------------------------|
1-------------------------------------|
2-------------------------------------|
3-----------9-------------------------|
4---9h11---------11--9------9--11--11-|
5-----------------------11------------|
6-------------------------------------|
1-----------------------------------------------------|
2-----------------------------------------------------|
3---------9-------------------------------------------|
4---9h11-----11--9-------9-h-11-p-9-------------------|
5--------------------11--------------11--------9------|
6-------------------------------------------------12--|
1------------------------------|
2------------------------------|
3------------------------------|
4------------------------------|
5---9h11--9--------9----11-----|
6-------------12-----------12--|

1--------------------------------|
2--------------------------------|
3--------------------------------|
4--------------------------------|
5--------------------------------|

6--12~~~~~~~~~~~~~~~~~~~~~~~~~~--|


		1-----------------|
		2------9-------9--|
		3------9-------9--|
		4------9-------9--|
		5-----------------|
		6-----------------|

(intro played with this riff, same riff during slide part)

 E
If Coke is a mystery, Michael Jackson...history

1------------------------------|
2---9/10--9--------------------|
3------------11--9-------------|
4-----------------------11-----|
5------------------------------|
6------------------------------|


 A
If beauty is truth

1-----------------------|
2-----------------------|
3---8h9---8-------------|
4------------11--9------|
5-----------------------|
6-----------------------|


 E
And surgery...the fountain of youth

 C#mF#m
 What am I to do?
1---------------------------------------------------|
2---------------------------------------------------|
3---8--h9-9----8--8-h9-8----8-8h9-8---8--8h9-8--8---|
4---------------------------------------------------|
5---------------------------------------------------|
6---------------------------------------------------|

 C#mA
Have I got the gifts to get me through
 E
The gates of that mansion


		1------------------|
		2---7\5-------3/5--|
		3------------------|  X2
		4---7\6-------4/6--|
		5------------------|
		6------------------|



 E
 If OJ is more than a drink
1-----------------------|
2-----------------------|
3-----------------------|
4-----------------------|
5---11--9-------9-------|
6----------12-----------|


And a Big Mac bigger than you think
1-----------------------------------------|
2----------------10-9---------------------|
3-----------------------11----11------9---|
4-----------------------------------------|
5---11--9---------------------------------|
6----------12-----------------------------|

 A
If perfume is an obsession
1---------------------------|
2---------------------------|
3---9-----8-----------------|
4-----------11--11----9-----|
5---------------------------|
6---------------------------|


 E
And talk shows...confession
1---------------------------------------|
2---------------------------------------|
3----------------9----------------------|
4--11-----9h11-------11---9-------9h11--|
5-----------------------------11--------|
6---------------------------------------|


 C#mF#m
 What have we got to lose?
1-------------------------------------|
2-------------------------------------|
3-----------9-------------------------|
4---9h11---------11--9------9--11--11-|
5-----------------------11------------|
6-------------------------------------|

 C#mA
 Another push and maybe we'll be through
1-------------------------------------|
2-------------------------------------|
3-------------------------------------|
4---9h11----9-------------------------|
5----------------11--9----------------|
6----------------------------12-------|


 E
The gates of that mansion
        1---------------------------|
        2---7\5-------3/5-----------|
#cutline#    3---------------------|  X2
        4---7\6-------4/6-----------|
        5---------------------------|
        6---------------------------|

I never bought a lotto ticket, I never parked in anyone's space
The banks they're like cathedrals, I guess casinos took their place

 AE
Love come on down, don't wake her she'll come around
Chance is a kind of religion
Where you're damned for plain hard luck
I never did see that movie, never did read that book

 AE
Love come on down, let my numbers come around
 C#mF#m
 Don't know if I can hold on

 C#mA
 Don't know if I'm that strong

 C#mF#m
 Don't know if I can wait that long

 C#mA
 Till the colours come flashing and the lights go on

Then will there be no time for sorrow?
1-----------------------------------|
2-----------------------------------|
3-----------------------------------|
4-----------------------------------|
5----11-------9---------------9-----|
6--------------------12-------------|


Then will there be no time for shame?
1-----------------------------------|
2-----------------------------------|
3-----------------------------------|
4-----------------------------------|
5----11-------9---------------9-----|
6--------------------12-------------|

 AE
Though I can't say why, I know I've got to believe
1---------------------------------------------------------|
2---------------------------------------------------------|
3---------------------------------------------------------|
4----11-------9-------11------9---------------------------|
5-------------------------------------11------9-----------|
6---------------------------------------------------12----|

 C#mF#m
We'll go driving in that pool
1-----------------------------------|
2-----------------------------------|
3---9--8----------------------------|
4--------11---9---11--11------------|
5-----------------------------------|
6-----------------------------------|


 C#mA
It's who you know that gets you through
1------------------------------------------------------|
2------------------------------------------------------|
3---9--8-----------------------------------------------|
4--------11-----9-------11-----9h11---9----------------|
5-----------------------------------------11-----------|
6------------------------------------------------12----|..

The gates of the playboy mansion....a donation the playbay mansion...
Then will there be no time of sorrow?
Then will there be no time for shame?
Then will there be no tome of sorrow?
Then will there be no time for shame?


A C#m E F#m
variations - click chord images
Transpose chords:
Tuning:
Cool service:
View: Size:
A  A  A
Rating:
Layout:
  • Currently 1.9/5 Stars.
  • 1
  • 2
  • 3
  • 4
  • 5
 
Accuracy:
  • Currently 2.3/5 Stars.
  • 1
  • 2
  • 3
  • 4
  • 5
 
click stars to rate
Chordie recommends:
Check out JamPlay.com for online video guitar lessons
Songbook:
Login to add this song to your songbook
Support the artist
Preview/buy this song
MSN Music
Why this non-profit ad?

 
login to add comments/video/corrections