eToCache5 = ""; ?> by Unknown - guitar chords, guitar tabs and lyrics - chordie
e|------------------------------------------------------------------|

b|------5-------------7-------------7-----8-8---7------7------------|
g|--------6--------------6------------7---7-7---7------7-----9------|
d|--4/7-----7----7/8-------8----8/-9-----------7-----7-----x--7----7|
a|------------------------------------------------------------------|
e|------------------------------------------------------------------|
e|------------------------------------------------------------------|
b|------5-------------7-------------7-----8-8---7------7------------|
g|--------6--------------6------------7---7-7---7------7-----9------|
d|--4/7-----7----7/8-------8----8/-9-----------7-----7-----x-7----7-|
a|------------------------------------------------------------------|
e|------------------------------------------------------------------|
e|-----------------------------------------------------------------|
b|------5---------------7------------7----8-7-8-7--8-8p7--------9--|
g|--------6---------------6------------7--7---7----7-7-------------|
d|--4/7-----7----7/8--------8----8/-9---------------------9--9-----|
a|--------------------------------------------------------7--7-----|
e|-----------------------------------------------------------------|
e|------------------------------------------------------------------|
b|------5-------------7-------------7-----8-8---7------7------------|
g|--------6--------------6------------7---7-7---7------7-----9------|
d|--4/7-----7----7/8-------8----8/-9-----------7-----7-----x-7----7-|
a|------------------------------------------------------------------|
e|------------------------------------------------------------------|
e|-------------------------------------------------------------------|
b|------5-------------7-------------7-----8-8---7------7---------7-10|
g|--------6--------------6------------7---7-7---7------7-----9-------|
d|--4/7-----7----7/8-------8----8/-9-----------7-----7-----x--7------|
a|-------------------------------------------------------------------|
e|-------------------------------------------------------------------|
e|-------------------------------------------------------------------|
b|------5---------------7------------7----8-7-8-7--8-8p7--------7--10|
g|--------6---------------6------------7--7---7----7-7---------------|
d|--4/7-----7----7/8--------8----8/-9---------------------9----------|
a|--------------------------------------------------------7----------|
e|-------------------------------------------------------------------|

 BmGDA
 ohoooee...ohooee 

strofe again:

e|-------------------------------------------------------------------|
b|------5---------------7------------7----8-7-8-7--8-8p7--------7--10|
g|--------6---------------6------------7--7---7----7-7---------------|
d|--4/7-----7----7/8--------8----8/-9---------------------9----------|
a|--------------------------------------------------------7----------|
e|-------------------------------------------------------------------|
e|-------------------------------------------------------------------|
b|------5---------------7------------7----8-7-8-7--8-8p7--------7--10|
g|--------6---------------6------------7--7---7----7-7---------------|
d|--4/7-----7----7/8--------8----8/-9---------------------9----------|
a|--------------------------------------------------------7----------|
e|-------------------------------------------------------------------|
e|-------------------------------------------------------------------|
b|------5---------------7------------7----8-7-8-7--8-8p7--------7--10|
g|--------6---------------6------------7--7---7----7-7---------------|
d|--4/7-----7----7/8--------8----8/-9---------------------9----------|
a|--------------------------------------------------------7----------|
e|-------------------------------------------------------------------|
e|-------------------------------------------------------------------|
b|------5---------------7------------7----8-7-8-7--8-8p7--------7--10|
g|--------6---------------6------------7--7---7----7-7---------------|
d|--4/7-----7----7/8--------8----8/-9---------------------9----------|
a|--------------------------------------------------------7----------|
e|-------------------------------------------------------------------|


and chorus again:
 BmGDA
 ohoooee...ohoooee 
 BmG
 ohoooee...

I didn't type the text but now i need to, It's all chords now:
strofe:

 DA
 slow down my beating heart
 BmG
 man dreams one day to fly  
 ADAD
 a man takes a rocketship  into the sky's
 BmG
 he lives on star that's dying in the night
 AD
 and follows in the trail    
 AD
the scatter of light

turn it ooohhn... turn it on turn me on hmm yeah..
e|-------------------------------------------------------------------|
b|------5---------------7------------7----8-7-8-7--8-8p7--------7--10|
g|--------6---------------6------------7--7---7----7-7---------------|
d|--4/7-----7----7/8--------8----8/-9---------------------9----------|
a|--------------------------------------------------------7----------|
e|-------------------------------------------------------------------|


chorus:

 DmG
 ohooo...  
 DA
 slow down my beating heart
 DmG
 ohooo... 
 DA
 slowly, slowly love
 BmG
 slow down my beating heart
 DA
 slowly, slowly love
 BmA
 slow down my beating heart
 DA
 slowly, slowly love...Dm...(let the last chord ring)

well this was my version of this beautiful song, I hope you enjoy this=p


A Bm D Dm G
variations - click chord images
Transpose chords:
Tuning:
Cool service:
View: Size:
A  A  A
Rating:
Layout:
  • Currently 2.1/5 Stars.
  • 1
  • 2
  • 3
  • 4
  • 5
 
Accuracy:
  • Currently 2.4/5 Stars.
  • 1
  • 2
  • 3
  • 4
  • 5
 
click stars to rate
Chordie recommends:
Check out JamPlay.com for online video guitar lessons
Songbook:
Login to add this song to your songbook
Support the artist
Preview/buy this song
MSN Music
Why this non-profit ad?

 
login to add comments/video/corrections