Chordie logo

Wild Cat   Ub40



 Title - Wild Cat
 Artist - UB40
 Album - Present Arms
 Tabbed by - Mat Bean
 E-mail - mattydread2@yahoo.com

   Basically the same riff thro'out with improv.
    riff 1
G|--------------------------------|
D|--------------------------------|
A|--77-755557-77-----------5-6-7--|
E|----------------7-6-5--5--------|

    riff 2
G|-------------------------------------|
D|-------------------------------------|
A|--77-755557-77------------5-6-7------|
E|----------------7-6-5--5---------50--|

    riff 3
G|----------------------------------------|
D|--------------------------------7h97h9--|
A|--77-755557-77------------5-6-7---------|
E|----------------7-6-5--5----------------|

    riff 4
G|-----------------------------------|
D|-----------------------------------|
A|--77-755557-77---------------7-----|
E|----------------7-6-5-5-3-2----50--|
    repeat riff 3

    riff 5
G|----------------------------------------|
D|-----------------------------7h97h97h9--|
A|--77-755557-77-----------5-6------------|
E|----------------7-6-5--5----------------|
    repeat riffs 2,1

    riff 6
G|----------------------------------|
D|----------------------------------|
A|--7-775-7-77---7---5-6--7777---7--|
E|-------------7---5-----------7----|

    riff 7
G|------------------------4----4-----|
D|---------------------------2----2--|
A|--77-75555-------------------------|
E|------------7-6-5-3-2-3------------|
    repeat riff 4

     riff 8
G|-------------------------------|
D|------------------------2-2----|
A|--777-5555------------------2--|
E|------------7-6-5-3-2-3--------|
    repeat riff 3

    riff 9
G|-------------------------------------|
D|--------------------------------9----|
A|--77-75555-7-77-----------5-6-7---7--|
E|----------------7-6-5--5-------------|

    riff 10
G|-------------------------------|
D|-------------------------------|
A|--77-5-7777-------5--7777---7--|

E|------------7-5-5---------7----|



Important: The song above is NOT stored on the Chordie server. The original song is hosted at www.guitaretab.com. Chordie works as a search engine and provides on-the-fly formatting. Chordie does not index songs against artists/composers will. To remove this song please click here.

This song is displayed as text-only. Transposing and tuning is only available for chordpro-songs.

Login - add to songbook

Rating click stars to rate

Layout
Accuracy

SHARE PAGE  

You need to log in to post comments