Guitar Tabs, Chords and Lyrics


Babys Clean Conscience  Ugly Casanova

----------------------------------------------------------------------



----------------------------------------------------------------------

e|----------------------------------|
B|----------------------------------|
G|------------------------2---------|
D|----0---0---2---2---3--------3-2--|
A|--3---3---3---3---3---3-----------|
E|----------------------------------|
    [F]     [C]   [Cadd9]                                                                             
e|--1----0----0--|
B|--1----1----3--|
G|--2----0----0--|
D|--3----2----2--|
A|--3----3----3--|
E|---------------|

[F]I've got a baby's clean [C]conscience, [F]I walk around with my [C]head off
[F]And in the state of the [C]big sky, [F]the ground holds onto my [C]grandpa's
[F]I'm always walking that [Cadd9]one pace, [F]I'm walking back, [Cadd9]head off
[F]And in the state of the [Cadd9]black feet, [F]the dirt stores much of my [Cadd9]family's
[F]I'm always walking that [Cadd9]one way, [F]the dirt stores much of my [Cadd9]family
[F]I blew off my [Cadd9]laundry, and my clothes[F] hold onto the [Cadd9]dirt, see
[F]And in the state of the [Cadd9]black feet, [F]I've got a baby's clean [Cadd9]conscience
F Cadd9 |-(begin intro riff)
I walk around with my shoes off, and the ground holds on to my bad walk.

OUTRO RIFF SAME AS INTRO


Riff played by guitar 2 in outro
(lots of effect)

e|----------------------------|
B|----------------------------|
G|----------------------------|
D|---5------------------------|
A|--------7----5-------7------|
E|------------------------8---|



===============================================================================

Important: The song above is NOT stored on the Chordie server. The original song is hosted at www.guitaretab.com. Chordie works as a search engine and provides on-the-fly formatting. Chordie does not index songs against artists'/composers' will. To remove this song please click here.

Text color:
Chord color:
Chord grids: 
Font size:    
Page size: 

C Cadd9 F
variations - click chord images

Login - add to songbook

Transpose chords

Tuning

Rating click stars to rate

Layout
Accuracy

SHARE PAGE  




You need to log in to post comments