Utreise

Ulver

Version 1.0 - MARCH 2000

Transcribed by: Cole Farnum
For Questions, Comments, Newest Version, or Corrections mail me: phatsk8@hotmail.com

Tuning: E (E,A,D,G,B,E)

1st guitar
[------------------------------]
[------------------------------]
[---2-4-4/5-4-2-0-4-2----------]
[--2---------------------------]
[-0----------------------------]
[------------------------------]


2nd guitar First end Second end Third end

Both guitars
[------------------------------]
[------------------------------]  This sounds more like the flute.
[------------------------------]
[-----2---3-2-0----------------]
[-3--5----------2--------------]
[-----------------3--5---------]


Both guitars
[------------------------------]
[------------------------------]  Let power chords ring.
[------------------------0-----]
[-4--5-4----4--5-4-----2-------]
[-2---------2------2-2---------]
[------------------0-----------]


1st guitar
[------------------------------]
[------------------------------]
[-5-7-9--10-9-7-5-0-/2---------]
[------------------------------]
[------------------------------]
[------------------------------]


2nd guitar
[----------------------]
[-10-12-13-10-12-13-10-]
[---0--0--0--0--0--0---]
[----------------------]
[----------------------]
[----------------------]


2nd guitar solo (not complete and a little wrong) 2:13-2:23
[----------------------------------------------------------------]
[-10-12-13------(13)(12)(10)(8)----------------------(10)(12)----]
[------------------------------8-9-10~----(15)(14)(12)-----------]
[----------------------------------------------------------------]
[----------------------------------------------------------------]
[----------------------------------------------------------------]				











variations - click chord images
Transpose chords:
Tuning:
Cool service:
View: Size:
A  A  A
Rating:
Layout:
  • Currently 0/5 Stars.
  • 1
  • 2
  • 3
  • 4
  • 5
 
Accuracy:
  • Currently 3/5 Stars.
  • 1
  • 2
  • 3
  • 4
  • 5
 
click stars to rate
Chordie recommends:
Learn to play songs at Jamplay.com with video guitar lessons
Songbook:
Login to add this song to your songbook
Support the artist
Preview/buy this song
MSN Music
Why this non-profit ad?

 
login to add comments/video/corrections