Chordie logo

Postcards   Uncle Brian



song: Postcards
band: Uncle Brian
tabbed by:funeralforafrie + Ian


Well pretty easy song, work out structure etc for yourselves 

Intro 
E|-----------7----10-9-7----------------------7----13b-12-10---------------|
B|------7h10---10-------10-8-------------7h10---10-----------12-10h12-10-12| 
G|--7-7--------------------11-9h11p9-7-7-----------------------------------| 
D|-------------------------------------------------------------------------| 
A|-------------------------------------------------------------------------| 
E|-------------------------------------------------------------------------| 

Verse: 

E|-------------------------------------------------------------------| 
B|-------------------------------------------------------------------| 
G|--7-7-7-7---------9-9-9-9---------7-7-7-7--------------------------| 
D|--7-7-7-7-7-7-7-7-9-9-9-9-5-5-7-7-7-7-7-7-7-7-7-7-5-5-5-5-5-5-5-5--|x2 
A|--5-5-5-5-7-7-7-7-7-7-7-7-5-5-7-7-5-5-5-5-7-7-7-7-5-5-5-5-5-5-5-5--| 
E|----------5-5-5-5---------3-3-5-5---------5-5-5-5-3-3-3-3-3-3-3-3--| 

Ska Bit: 
 
E|---3-3-5-5-5-5-7-7-3-3-3-3--5---------| 
B|---3-3-5-5-5-5-7-7-3-3-3-3--5---------| 
G|---4-4-6-6-6-6-8-8-4-4-4-4--6---------| 
D|---5-5-7-7-7-7-9-9-5-5-5-5--7---------| 
A|----------------------------7---------|
E|----------------------------5---------|

Chorus: 

E|-------------------------------------------------------------------|
B|-------------------------------------------------------------------| 
G|--7-7-7-7---------9-9-9-9---------7-7-7-7--------------------------| 
D|--7-7-7-7-7-7-7-7-9-9-9-9-5-5-7-7-7-7-7-7-7-7-7-7-5-5-5-5-5-5-5-5--| x2 
A|--5-5-5-5-7-7-7-7-7-7-7-7-5-5-7-7-5-5-5-5-7-7-7-7-5-5-5-5-5-5-5-5--| 
E|----------5-5-5-5---------3-3-5-5---------5-5-5-5-3-3-3-3-3-3-3-3--| 

Bridge: 

E|---------------------------------| 
B|---------------------------------| 
G|---------------------------------| 
D|-2---4---5---2---4---5---7-7-7---| 
A|-2---4---5---2---4---5---7-7-7---| 
E|-0---2---3---0---2---3---5-5-5---| 



E|-----------------------------------|
B|-----------------------------------| 
G|--7-7-7-7--------------------------| 
D|--7-7-7-7-7-7-7-7-5-5-5-5-5-5-5-5--| x4 
A|--5-5-5-5-7-7-7-7-5-5-5-5-5-5-5-5--| 
E|----------5-5-5-5-3-3-3-3-3-3-3-3--| 

End: 
E|--------------| 
B|--------------|
G|---------7----| 
D|---5--7--7----| 
A|---5--7--5----| 



Important: The song above is NOT stored on the Chordie server. The original song is hosted at www.guitaretab.com. Chordie works as a search engine and provides on-the-fly formatting. Chordie does not index songs against artists/composers will. To remove this song please click here.

This song is displayed as text-only. Transposing and tuning is only available for chordpro-songs.

Login - add to songbook

Rating click stars to rate

Layout
Accuracy

SHARE PAGE  

You need to log in to post comments