Time After Time

Uncle Kracker

 FGEmFmaj9DmCG5Am7
E --1--   --3--   --0--   --0--   --1--   --0--   --3--   --3--
B --1--   --3--   --0--   --1--   --3--   --1--   --3--   --1--
G --2--   --4--   --0--   --0--   --2--   --0--   --0--   --0--
D --3--   --5--   --2--   --2--   --0--   --2--   --0--   --2--
A --3--   --5--   --2--   -----   -----   --3--   --2--   --0--
E --1--   --3--   --0--   --1--   -----   -----   --3--   -----


Intro:

F G Em Fmaj9 (repeatx2)

(Guitar 1)

E -------8--7--------5---3--------5--3--1--0----0-------0----|
B -----6----6------3-3---3------0----0-----0--3---1---3---1--|
G ---5------------4------------0-----------------------------|
D -----------------------------------------------------------|
A -----------------------------------------------------------|
E -----------------------------------------------------------|


(Guitar 2)
E -----------------------------------------------------------|
B -----------------------------------------------------------|
G -------5--4--------2---0------2--0-------------------------|
D --3/5--0---------0-0---0-----0-----3--2--0--2---(0)-(2)----|
A --3/5-----------2-----------2-----------------3--------(3)-|
E ----------------------------3------------------------------|


Verse:

 DmCDmCDmCDmDsusC
-1-   ---      ---     ---      ---   ---        ---  -0-  -0-
-3-   -1-      -3-     -1-      -3-   -1-        -3-  -3-  -1-
-2-   -0-      -2-     -0-      -2-   -0-        -2-  -2-  -0-
-0-   -2-      -0-     -2-      -0-   -2-        -0-  ---  -2-
---   -3-      ---     ---      ---   ---        ---  ---  ---
---   ---      ---     ---      ---   ---        ---  ---  ---
---   ---      ---     ---      ---   ---        ---  ---  ---


Ly - ing in my bed I hear the clock tick and I think of you
Caught up in cir - cles confu - sion is nothing new

Pre-chorus:

 FGEmFGEm
 Flashbacks, warm nights  Almost left behind

 FGEmFFFmaj9
 Suitcase of memories, time after

 DmCDmCDmCDmC
 Some - times you picture me, and I'm    walk  ing too   far    ahead
You're calling to me and I can't hear what you've said

 FGEmFGEm
Then you say go slow, I fall behind

 FGEmF
 The second hand unwinds

Chrous:

 G5Am7FFmaj9C
If you're lost you can look and you  will find me                   Time after time
If you fall I will catch you I'll be waiting Time after time
If you're lost you can look and you will find me Time after time
If you fall I will catch you I'll be waiting (I Will be waiting) Time after time

Repeat intro
verse
Pre-chorus
Chorus
Instrumental (Chorus chords x2)
Pre-chorus
Chorus

Lyrics (Con't):

After my picture fades and darkness has
Turned to gray
Watching through windows you're wondering
If I'm OK
Secrets stolen from deep inside
The drum beats out of time

If you're lost you can look and you will find me
Time after time
If you fall I will catch you I'll be waiting
Time after time

Then you say go slow
I fall behind
The second hand unwinds

If you're lost you can look and you will find me
Time after time
If you fall I will catch you I'll be waiting
Time after time

If you're lost you can look and you will find me
Time after time
If you fall I will catch you I'll be waiting
Time after time

Time after time
Time after time
Time after time

Have fun!!
phtirus@hotmail.com


Am7 C Dm Dsus Em F Fmaj9 G G5
variations - click chord images
Transpose chords:
Tuning:
Cool service:
View: Size:
A  A  A
Rating:
Layout:
  • Currently 2.7/5 Stars.
  • 1
  • 2
  • 3
  • 4
  • 5
 
Accuracy:
  • Currently 2.7/5 Stars.
  • 1
  • 2
  • 3
  • 4
  • 5
 
click stars to rate
Chordie recommends:
Learn how to play guitar at JamPlay.com
Songbook:
Login to add this song to your songbook
Support the artist
Preview/buy this song
MSN Music
Why this non-profit ad?

 
login to add comments/video/corrections