Chordie logo

Lake Bottom Evening   Under A Nightmare



VERSE
E------------------------------------|
B------------------------------------|
G------------------------------------|
D---------5-5-5-5---------5-5-5-5----|
A--5-5-5--7-7-7-7--8-8-8--7-7-7-7----|
E--7-7-7-----------6-6-6-------------|

CHORUS
E-----------------------------|
B-----------------------------|
G-----------------------------|
D-----------------------------|goes back to verse after 1st chorus
A-7-7-7--8-8-8--9-9-9-9-------|
E-5-5-5--6-6-6--7-7-7-7-------|

and after the 2nd chorus it has another little riff that goes somethin like....

E----------------------------|
B----------------------------|
G----------------------------|
D----------------------------|
A-5--7--7-7-7----5/-7--7-7-7-|  then after this goes back to the verse


Important: The song above is NOT stored on the Chordie server. The original song is hosted at www.guitaretab.com. Chordie works as a search engine and provides on-the-fly formatting. Chordie does not index songs against artists/composers will. To remove this song please click here.

This song is displayed as text-only. Transposing and tuning is only available for chordpro-songs.

Login - add to songbook

Rating click stars to rate

Layout
Accuracy

SHARE PAGE  



You need to log in to post comments