Guitar Tabs, Chords and Lyrics


Youre Ever So Inviting   Underoath



-------------------------------------------------------------------------------
		Moving For The Sake Of Motion - underOATH
-------------------------------------------------------------------------------
Tabbed by:Bryan
Email:woah0404@aol.com

This was the tab I made back when I thought the song was Moving For The Sake Of Motion 
now it's under the right name

Tuning: DADGBE
Intro
e|---------------|
B|-6-------------|
G|-9-------------|
D|---------------|
A|---------------|
D|---------------|
CHORUS I'm Way Too Lazy To Put The Strumming
e|---------------------------------------------------------------------------|
B|---------------------------------------------------------------------------|
G|---------------------------------------------------------------------------|
D|0-3-8-5--x's-a-lot---------------------------------------------------------|
A|0-3-8-5--------------------------------------------------------------------|
D|0-3-8-5--------------------------------------------------------------------|

VERSE
e|---------------------|-------------------------------------------------------|
B|---------------------|-------------------------------------------------------|
G|---------------------|12-10-9-5-7-12-10-14-----------------------------------|
D|0--10--12--9-14-x's-2|-x--x-x-x-x--x--x--x-----------------------------------|
A|0--x---x---x-x-------|10-08-7-3-5-10-08-12-----------------------------------|
d|0--08--10--7-12------|-------------------------------------------------------|
Thing after 2nd verse and once again too lazy for rhythm
e|---------------------------------------------------------------------------|
B|---------------------------------------------------------------------------|
G|---------------------------------------------------------------------------|
D|8-10-5-x's-2-5-------------------------------------------------------------|
A|8-10-5-------5-------------------------------------------------------------|
D|8-10-5-------5-------------------------------------------------------------|  .  . .
thing after 3rd chorus
e|---------------------------------------------------------------------------|
B|---------------------------------------------------------------------------|
G|---------------------------------------------------------------------------|
D|0-8-a-few-times---8--0-8-5-until-end---------------------------------------|
A|0-8---------------8--0-8-5-------------------------------------------------|
E|0-8---------------8--0-8-5-------------------------------------------------|  . .


| /  slide up
| \  slide down
| h  hammer-on
| p  pull-off
| ~  vibrato
| +  harmonic
| x  Mute note


Important: The song above is NOT stored on the Chordie server. The original song is hosted at www.guitaretab.com. Chordie works as a search engine and provides on-the-fly formatting. Chordie does not index songs against artists/composers will. To remove this song please click here.

This song is displayed as text-only. Transposing and tuning is only available for chordpro-songs.

Login - add to songbook

Rating click stars to rate

Layout
Accuracy

SHARE PAGE  




You need to log in to post comments