Guitar Tabs, Chords and Lyrics


Across The Nation   Union Underground



Creator: abulshabab@hotmail.com   Mail comments to him. I did NOT make this tab, I'm 
it to help other people.

Intro
|----------------------------------------------------|
|----------------------------------------------------|
|----------------------------------------------------|
|--55-55-55------55-55-55----------------------------|
|--55-55-55------55-55-55----------------------------|
|--33-33-33------33-33-33----------------------------|

Chorus
|----------------------------------------------------|
|----------------------------------------------------|
|----------------------------------------------------|
|--2-22-5-5-2----------------------------------------|
|--2-22-5-5-2-------2--------------------------------|
|--0-00-3-3-0-0-2-3---0-1----------------------------|

(i know this doesnt really sound right but its hard to tell)

Verse - This is played with very heavy distortion (it sounds good with the tone down to 
which means you will have to be quick putting it back up)
|---------------------------------------------------------------------------|
|---------------------------------------------------------------------------|
|---------------------------------------------------------------------------|
|--2-5--2-5-3---------2-5--2-5-5-3-5-2-5/3---55-55-55-----------------------|
|--2-5--2-5-3-(x2)----2-5--2-5-5-3-5-2-5/3---55-55-55-------2---------------|
|--0-3--0-3-1---------0-3--0-3-3-1-3-0-3/1---33-33-33-0-2-3---0-1-----------|

Chorus
|----------------------------------------------------|
|----------------------------------------------------|
|----------------------------------------------------|
|--2-22-5-5-2----------------------------------------|
|--2-22-5-5-2-------2--------------------------------|
|--0-00-3-3-0-0-2-3---0-1----------------------------|

Verse
|---------------------------------------------------------------------------|
|---------------------------------------------------------------------------|
|---------------------------------------------------------------------------|
|--2-5--2-5-3---------2-5--2-5-5-3-5-2-5/3---55-55-55-----------------------|
|--2-5--2-5-3-(x2)----2-5--2-5-5-3-5-2-5/3---55-55-55-------2---------------|
|--0-3--0-3-1---------0-3--0-3-3-1-3-0-3/1---33-33-33-0-2-3---0-1-----------|

Chorus
|----------------------------------------------------|
|----------------------------------------------------|
|----------------------------------------------------|
|--2-22-5-5-2----------------------------------------|
|--2-22-5-5-2-------2--------------------------------|
|--0-00-3-3-0-0-2-3---0-1----------------------------|

Interlude
|------------------------|
|------------------------|
|------------------------|
|------------------------|
|-------2----------------|
|-0-2-3---0-2------------|

Chorus
|----------------------------------------------------|
|----------------------------------------------------|
|----------------------------------------------------|
|--2-22-5-5-2----------------------------------------|
|--2-22-5-5-2-------2--------------------------------|
|--0-00-3-3-0-0-2-3---0-1----------------------------|

End on
|-------|
|-------|
|-------|
|---2---|
|---2---|


Important: The song above is NOT stored on the Chordie server. The original song is hosted at www.guitaretab.com. Chordie works as a search engine and provides on-the-fly formatting. Chordie does not index songs against artists'/composers' will. To remove this song please click here.

This song is displayed as text-only. Transposing and tuning is only available for chordpro-songs.

Login - add to songbook

Rating click stars to rate

Layout
Accuracy

SHARE PAGE  




You need to log in to post comments