Chordie logo


Salvation Is Here   United Live



Arvin again in ur service...


Intro:
Rhythm
Keep strumming
-------|
-12----|
-11----|
-9-----|
-------|
-------|

Lead
-----------------|
-12-11-----------|
-------11--(x2)--|
-----------------|
-----------------|
-----------------|

Verse
Rhythm
Keep strumming
----------------|
-12--12-12------|
-11--9--9h11----|
-9---9--9-------|
----------------|
----------------|

Lead
------------------|
------------------|
-8---6---8---9----|
------------------|
-6---4---6---7----|
------------------|
Use slides to change between the notes.


Bridge part: use wah pedal...

First round: depress & release the wah repeatedly while holding on the the following chords:
-4----9-----|
-4----9-----| (x2)
-4----9-----|
------------|
------------|
------------|

2nd round: vocals enter. Play these notes in any order, while slowly depressing and 
the wah.
----------0---|
-------0------|
----8---------|
-9------------|
--------------|
--------------|

3rd round: strum these chords.
--0---0----0----------|
--0---0----0----------|
--9---8----9----------|
--9---9----9----------|
----------------------|
----------------------|


4th round: climax of the bridge. Strum with distortion.
----------------------|
-12--12---11---9------|
-11--9----11---8------|
-9---9----11---9------|
----------------------|
----------------------|
Chords are B E F# G#m, and you can transpose them to derive other chords too.



Important: The song above is NOT stored on the Chordie server. The original song is hosted at www.guitaretab.com. Chordie works as a search engine and provides on-the-fly formatting. Chordie does not index songs against artists/composers will. To remove this song please click here.

This song is displayed as text-only. Transposing and tuning is only available for chordpro-songs.

Login - add to songbook

Rating click stars to rate

Layout
Accuracy

SHARE PAGE  




You need to log in to post comments