Chordie logo


A Reprise   United Live



OK sorry about having to do that again (yes this is the same guy who did the last 1) i
to get it perfect which im hoping and pretty sure that is its a good song and sori i
do the cords 4 it and other guitar in it if ne1 knows plzz pleaseee send them to me cos 
really wana know and i dnt hav the united we stand music book ok thanx enjoy playin!


 This is all played moderetly slow and all is on delay

 - -------------------5-----------------------5-----------------------9-10-|
 - 7--7----7--7--7-------8---7--7----7----7------8---7--7----7----7--------|
 - --7--7----7--7--7-----------7--7----7----7----------7--7----7----7------|
 - ------------------------------------------------------------------------|
 - ------------------------------------------------------------------------|
 - ------------------------------------------------------------------------|


 - -----10~-------------10---|------------------5-7--------------------9-10-|
 - ---8--------8~-----8----8-|-7--7----7--7--7----8---7--7----7--7--7-------|
 - --------------------------|--7--7----7--7--7--------7--7----7--7--7------|
 - --------------------------|----------------------------------------------|
 - --------------------------|----------------------------------------------|
 - --------------------------|----------------------------------------------|


 - ------------------5-7------10~--10~--10~--10~-|----10~----10~----10-5-7--|
 - -7--7----7----7-----8---8~----------8---------|7~---------------7-----8--|
 - ---7--7----7----7-----------------------------|--------------------------|
 - ----------------------------------------------|--------------------------|
 - ----------------------------------------------|--------------------------|
 - ----------------------------------------------|--------------------------|

 - ----10~--------10-9~----10~----10~----10~----10~----10~----10~----10~----|
 - 7~--------------------7--------------------------------------------------|
 - -------------------------------------------------------------------------|
 - -------------------------------------------------------------------------|
 - -------------------------------------------------------------------------|
 - -------------------------------------------------------------------------|



Important: The song above is NOT stored on the Chordie server. The original song is hosted at www.guitaretab.com. Chordie works as a search engine and provides on-the-fly formatting. Chordie does not index songs against artists/composers will. To remove this song please click here.

This song is displayed as text-only. Transposing and tuning is only available for chordpro-songs.

Login - add to songbook

Rating click stars to rate

Layout
Accuracy

SHARE PAGE  




You need to log in to post comments