Countess Bathory

Unleashed


B E A D F# B
X6 X 2 |--------------------------|---------------------------| |--------------------------|---------------------------| |--------------------------|---------------------------| |--7-7--3-3-3--5-5---------|---------5---------5--3----| |--5-5--1-1-1--3-3--6-6-6--|--5-5-5--3--5-5-5--3--1----| |-------------------4-4-4--|--3-3-3-----3-3-3----------|
|----------------------------------| |----------------------------------| |----------------------------------| |----------------------------------| |--5---3---5---8---5---3---5---8---| |--3---1---3---6---3---1---3---6---|
X 4 X 2 coro...countess... |--------------------------|---------------------------| |--------------------------|---------------------------| |--------------------------|---------------------------| |--7-7--3-3-3--5-5---------|---------5---------5--3----| |--5-5--1-1-1--3-3--6-6-6--|--5-5-5--3--5-5-5--3--1----| |-------------------4-4-4--|--3-3-3-----3-3-3----------|
|----------------------------------| |----------------------------------| |----------------------------------| |----------------------------------| |--5---3---5---8---5---3---5---8---| |--3---1---3---6---3---1---3---6---|
X 4 |--------------------------| |--------------------------| |--------------------------| |--7-7--3-3-3--5-5---------| |--5-5--1-1-1--3-3--6-6-6--| |-------------------4-4-4--|
X 3 |----------------------------------| |----------------------------------| |----------------------------------| |-2-----------------------5--4--3--| |-0--0-00-0-00-0-00-0-00--3--2--1--| |----------------------------------| . .. . .. . .. . ..
X 1 |-------------------------------------| |-------------------------------------| |-------------------------------------| |-2-----------------------5--4-----7--|
|-0--0-00-0-00-0-00-0-00--3--2--3--5--| |-------------------------------1-----| . .. . .. . .. . ..
|----------------------------------| |----------------------------------| |----------------------------------| |--0-3-2-3-5-3-2-0-3-2-0-2--3---5--| |---------------------------1---3--| |----------------------------------| . . . . . . . . . . . .
|------------------------------| |------------------------------| |------------------------------| |--0-3-2-3-5-3-2-0-3-2-0-2--3--| |---------------------------1--| |------------------------------| . . . . . . . . . . . .
X 4 X 2 coro...countess... |--------------------------|---------------------------| |--------------------------|---------------------------| |--------------------------|---------------------------| |--7-7--3-3-3--5-5---------|---------5---------5--3----| |--5-5--1-1-1--3-3--6-6-6--|--5-5-5--3--5-5-5--3--1----| |-------------------4-4-4--|--3-3-3-----3-3-3----------|
|----------------------------------| |----------------------------------| |----------------------------------| |----------------------------------| |--5---3---5---8---5---3---5---8---| |--3---1---3---6---3---1---3---6---|
X 4 coro... |--------------------------| |--------------------------| |--------------------------| |--7-7--3-3-3--5-5---------| |--5-5--1-1-1--3-3--6-6-6--| |-------------------4-4-4--|
X 4 Fucking Countess Bathory... fin |-------------------------------------------------| |-------------------------------------------------| |-------------------------------------------------| |-2-----------------------5--4--3--2--2222222222/-| |-0--0-00-0-00-0-00-0-00--3--2--1--0--0000000000/-| |-------------------------------------------------| . .. . .. . .. . ..



























variations - click chord images
Transpose chords:
Tuning:
Cool service:
View: Size:
A  A  A
Rating:
Layout:
  • Currently 0/5 Stars.
  • 1
  • 2
  • 3
  • 4
  • 5
 
Accuracy:
  • Currently 3.2/5 Stars.
  • 1
  • 2
  • 3
  • 4
  • 5
 
click stars to rate
Chordie recommends:
Learn to play this song & others via video guitar lessons at JamPlay.com
Songbook:
Login to add this song to your songbook
Support the artist
Preview/buy this song
MSN Music
Why this non-profit ad?

 
login to add comments/video/corrections