Chordie logo

Hells Unleashed   Unleashed



Unleashed - Hell's Unleashed
                     From the Album 'Hell's Unleashed'
              Copyright 2002, Century Media
                     Version 1.0 - November 2002

Transcribed by: Vortigern

For Questions, Comments, Newest Version, or Corrections contact
Vortigern: at guy@freemail.hammerfall.net
http://www.everglow.be

Check Out Death8699.com, With More Transcriptions On It:
 http://www.death8699.com

.  - palm mute                  ph    - pinched harmonic
/  - slide up to                ah    - artificial harmonic
\  - slide down to              th    - tap harmonic
~  - vibrato                    hr    - natural harmonic
h  - hammer on                  b     - bend
p  - pull off                      Suffixes for bend
t  - tap with finger                    f - full bend    h - half bend
"  - tremolo picking                    r - release      t - tap bend
X  - percussion mute                    p - pick when bent
  - accented note                 Prefixes
() - ghost note, sustained note         p - pre-bend     w - use bar
*  - see comment                        d - don't pick start of bend

Tune Gtr to D

Hell's Unleashed

Riff A, both guitars
|--------------------------------------------------------------------|
|--------------------------------------------------------------------|
|--------------------------------------------------------------------|
|--------------------------------------------------------------------|
|-4------------------4---5----2--5-----------------------------------|
|-2-2222222222222222---2---2--0--3-----------------------------------|
    ................

Riff B, both guitars
|--------------------------------------------------------------------|
|--------------------------------------------------------------------|
|--------------------5-7-8-------------------------------------------|
|------6-7----5-7-8--------------6-7--3------------------------------|
|-4----4-5------------------4----4-5--1--4---------------------------|
|-2-------------------------2------------2---------------------------|
              . . .

Riff C
|--------------------------------------------------------------------|
|--------------------------------------------------------------------|
|--------------------------------------------------------------------|Guit
|--------------------------------------------------------------------| I
|-22222222-0000000---------------------------------------------------|
|------------------22222222-11111111---------------------------------|
 ........................... ..................... ........................ ........................

|-----------------------------------------------------------------------------|
|---------------------3333-2222------------------------------------2222-3333--|
|-2222-4444-5555-2222-----------4444-5555-2222-4444-5555-2222-0000------------|Guit
|-----------------------------------------------------------------------------| II
|-----------------------------------------------------------------------------|
|-----------------------------------------------------------------------------|



Important: The song above is NOT stored on the Chordie server. The original song is hosted at www.guitaretab.com. Chordie works as a search engine and provides on-the-fly formatting. Chordie does not index songs against artists/composers will. To remove this song please click here.

This song is displayed as text-only. Transposing and tuning is only available for chordpro-songs.

Login - add to songbook

Rating click stars to rate

Layout
Accuracy

SHARE PAGE  



You need to log in to post comments