Guitar Tabs, Chords and Lyrics


Naive   Unloco



Song: "Naive"
Artist: Unloco
Album: Healing
Transcribed By: Bryan Bramlett (bryanmb87@aol.com)

Tuning: Drop D, 1 1/2 Steps Down (B,F#,B,E,G#,C#)

VERSE:
|------------------|
|------------------|
|------------------|
|-5555555533336666-|
|------------------|
|------------------|

BRIDGE:
|---------------|
|---------------|
|------55558888-|
|-0--0-XXXXXXXX-|
|-0--0-33336666-|
|-0--0----------|

CHORUS:
|---------------|
|---------------|
|---------------|
|-0--6-0--6-0-6-|
|-0--6-0--6-0-6-|
|-0--6-0--6-0-6-|

INTERLUDE:
|---------------------------------|
|---------------------------------|
|---------------------------------|
|---------------9---------------9-|
|-7h8p7-7-7h8p7---7h8p7-7-7h8p7---|
|---------------------------------|

INTERLUDE 2:
|---------------------------------|
|---------------------------------|
|---------------------------------|
|---------------------------------|
|---------------2---------------2-|
|-2h3p2-2-2h3p2---2h3p2-2-2h3p2---|

INTERLUDE 3:
|-----------|
|-----------|
|-----------|
|-----------|
|-55--55-55-|
|-----------|

INTERLUDE 4:
|--------------|
|--------------|
|--------------|
|-0-0--0-0---0-|
|-0-0--0-0---0-|


Important: The song above is NOT stored on the Chordie server. The original song is hosted at www.guitaretab.com. Chordie works as a search engine and provides on-the-fly formatting. Chordie does not index songs against artists'/composers' will. To remove this song please click here.

This song is displayed as text-only. Transposing and tuning is only available for chordpro-songs.

Login - add to songbook

Rating click stars to rate

Layout
Accuracy

Jango Player

SHARE PAGE  




You need to log in to post comments