Guitar Tabs, Chords and Lyrics


Act The Part   Unseen



INTRO GUITAR 1
e----------------|
B----------------|
G----------------|
D-----1010-------|
A---88-----------|play alot im not sure u can figure it out
E----------------|
INTRO GUITAR 2
e-------------------------------|
B-------------------------------|
G-------------------------------|
D-3-7-5-8-7-8-7-----------------|x2
A-3-7-5-8-7-8-7-----------------|
E-1-5-3-6-5-6-5-----------------|

VERSE
e-------------------------------------------|
B-------------------------------------------|
G-------------------------------------------|
D-33333333-77777777-55555555-88-77-8-7------|x3
A-33333333-77777777-55555555-88-77-8-7------|
E-11111111-55555555-33333333-66-55-6-5------|

CHORUS
e-------------------------------|
B-------------------------------|
G-5555--------------------------|
D-5555-6666-3333-5555-----------|x4
A-3333-6666-3333-5555-----------|
E------4444-1111-3333-----------|

VERSE x3
CHORUS x4

BRIDGE
e---------------------------|
B---------------------------|
G-3-5-------5---------------|
D-3-5-5-8-7-5-5-------------|x4 i dont think i did all this right but
A-1-3-5-8-7-3-5-------------|   it should be kinda close
E-----3-6-5---3-------------|

CHORUS xhow ever long u want to play it cuz it just fades out

this is kindof the solo im definetly not 100% on it but u can see if its close
e-------------8-8-8-8-8------------------------------------|
B--------------8-8-8-8-8---5/88-5/88-5/88-5/88-8-6-4-------|(repeat the slide
G-5-5-5-5-5-5----------------------------------------5-----| part 2x)
D--5-5-5-5-5-5---------------------------------------------|
A----------------------------------------------------------|


Important: The song above is NOT stored on the Chordie server. The original song is hosted at www.guitaretab.com. Chordie works as a search engine and provides on-the-fly formatting. Chordie does not index songs against artists'/composers' will. To remove this song please click here.

This song is displayed as text-only. Transposing and tuning is only available for chordpro-songs.

Login - add to songbook

Rating click stars to rate

Layout
Accuracy

SHARE PAGE  




You need to log in to post comments